Oops, an error
Loading. Please wait.

Mute City - F-Zero Tab

version 1
version 1

Whole song

Interactive

8,964 views 3 this week
1 commentread comment
1 2 3 4 5
please rate
add to favorites
launch autoscroll
font size
0
reset
how to read this tab
guitar tuner
Autoscroll
slow
fast
+/-
esc
set tempo
stop
Help us to improve Ultimate-Guitar.com Take our survey!
×
-------------------------------------------------------------------------------
                             Mute City - Powerglove
-------------------------------------------------------------------------------


Tabbed by. Branden Sahs
comment with corrections.

This is some of the lead guitar of the song Mute City by power glove from the game F-Zero.
You will have to adjust your amp and/or petal settings to get the correct tone but this 
is in standard tuning.
I do not believe there is any effects used on this song except in the intro.

verse 1.
0:25
E--11-----------------------11---------------11/14--13--16--14--13--11--|
B------14--13--11--13--14-------14--13--11------------------------------|
G-----------------------------------------------------------------------|
D-----------------------------------------------------------------------|
A-----------------------------------------------------------------------|
E-----------------------------------------------------------------------|

E--13--11---------------|
B----------14--13--11--9|
G-----------------------|
D-----------------------|
A-----------------------|
E-----------------------|

verse 2.
0:36
E--11-----------------------11---------------11/14--13--16--14--13--11--|
B------14--13--11--13--14-------14--13--11------------------------------|
G-----------------------------------------------------------------------|
D-----------------------------------------------------------------------|
A-----------------------------------------------------------------------|
E-----------------------------------------------------------------------|


E--13--14--13--11--------------|
B------------------14--13--11--|
G------------------------------|
D------------------------------|
A------------------------------|
E------------------------------|

verse 3.
0:48

E--------------11----------11--13------11--13--14--16--13--14--16--18--|
B--11--13--14------13--14----------14----------------------------------|
G----------------------------------------------------------------------|
D----------------------------------------------------------------------|
A----------------------------------------------------------------------|
E----------------------------------------------------------------------|


E--14--16--18--20--20--18--16--20--20--18--16--|
B----------------------------------------------|
G----------------------------------------------|
D----------------------------------------------|
A----------------------------------------------|
E----------------------------------------------|

verse 4.
0:59

E------------------11--------------11-11-13-13-------11-11-13-13-14-14-16-16-|
B--11--11--13--14------13-13-14-14-------------14-14-------------------------|
G----------------------------------------------------------------------------|
D----------------------------------------------------------------------------|
A----------------------------------------------------------------------------|
E----------------------------------------------------------------------------|

E--18-18-14-14-16-16-18-18--20--20--18--16--20--21--20--18----16--20|
b-------------------------------------------------------------------|
G-------------------------------------------------------------------|
D-------------------------------------------------------------------|
A-------------------------------------------------------------------|
E-------------------------------------------------------------------|

| /  slide up
| \  slide down
| h  hammer-on
| p  pull-off
| ~  vibrato
| +  harmonic
| x  Mute note

This is all i have for now.
I didn't have the time to figure out the intr part,
I will add that when i have the time.
I will also add more of the song as i have time to tab it.
Thanks.
Suggest correction
Give kudos to tab author, rate the tab!
1 2 3 4 5
comments
print report bad tab
1 comment total.
0 reply
demonducksaydie 50 wrote on May 21 2009, 12:40 pm

i have another version of this that has the intro and the 2nd guitar for the whole part i already have posted plus the whole next section of the song i will make a few revision and post it in a few days

guest
You may want to rate the tab now too:
select rating
Please do not post tabs as comments. Select "correction" instead!