Oops, an error
Loading. Please wait.

Action Tab

2,649 views 3 this week
2 commentsread comments
1 2 3 4 5
2 more votes to show rating
add to favorites
launch autoscroll
font size
0
reset
how to read this tab
guitar tuner
Autoscroll
slow
fast
+/-
esc
set tempo
stop
Intro/Verse
|---------------------------------|
|---------------------------------|
|---------------------X-X-7-7-7-7-|
|-7-7-7-7-7-7-7-7-7-7-X-X-6-6-6-6-|
|-X-X-X-X-X-X-X-X-X-X-X-X-5-5-5-5-|
|-5-5-5-5-5-5-5-5-5-5-X-X---------|


Chorus
|----------------------------------------------
|----------------------------------------------
|----------------------------------------------  
|-7-7-7-7-7-7-7-7-7/10-10-10-10-10-10-10-10-10\
|-7-7-7-7-7-7-7-7-7/10-10-10-10-10-10-10-10-10\
|-5-5-5-5-5-5-5-5-5/8--8--8--8--8--8--8--8--8-\

      --------------------------------|
      --------------------------------|
      --------------------------------| x2
      \3-3-3-3-3-3-3-3-3--5-5--5-5--5-|
      \3-3-3-3-3-3-3-3-3--5-5--5-5--5-|
      \1-1-1-1-1-1-1-1-1--3-3--3-3--3-|


Bridge
|--------------------------|
|--------------------------| 
|--------------------------| x2
|--------------------------|
|-7-7-7-8-8-8--10-10-11-11-|
|-5-5-5-6-6-6--8--8--9--9--|

|--------------------------|
|--------------------------|
|--------------------------| x2
|-7-7-7-8-8-8--10-10-11-11-|
|-5-5-5-6-6-6--8--8--9--9--|
|--------------------------|

Interlude
|-----------------------------------|
|-----------------------------------|
|-----------------------------------| x3
|-----------------------------------|
|-------------------------8*-5*-----|
|-5-8-5-8-5-8-5-8-5-8-5-8-------5-8-|
  . . . . . . . . . . . .

|-15--|
|-17b-|
|-----| x10
|-----|
|-----|
|-----|

|-10p8--10p8--10p8--10p8--10p8--10p8--10p8---0-X-5b-|
|-----10----10----10----10----10----10----10-0-X-5b-|
|---------------------------------------------------| x2
|---------------------------------------------------|
|---------------------------------------------------|
|---------------------------------------------------|

|---------------|
|-5b--7-5-------|
|--------7-5----| x2
|------------5b-|
|---------------|
|---------------|

|-5tp-7tp-10tp-12tp-15tp-17tp-20tp-|
|----------------------------------|
|----------------------------------|
|----------------------------------|
|----------------------------------|
|----------------------------------|

|-20p17--20p17--20p17--20p17--20p17--20p17---20b-|
|------20-----20-----20-----20-----20-----20-----|
|------------------------------------------------|
|------------------------------------------------|
|------------------------------------------------|
|------------------------------------------------|
Suggest correction
Give kudos to tab author, rate the tab!
1 2 3 4 5
comments
print report bad tab
2 comments total.
0 reply
simo9852 10 Aug 10, 2009 04:02 AM

what is the tuning? because its completely wrong in standard

+1 reply
simo9852 10 Aug 10, 2009 09:15 PM

intro

eB|---------------------------------|
Bb|---------------------------------|
Gb|-------------------------7-7-7-7-|
Db|-5-5-5-5-5-5-5-5-5-5-5-5-4-4-4-4-|
Ab|-0-0-0-0-0-0-0-0-0-0-0-0-0-0-0-0-|
Db|---------------------------------|

guest
You may want to rate the tab now too:
select rating
Wanna post a correction for this tab? Suggest correction