Oops, an error
Loading. Please wait.

Tonight The Stars Revolt Tab

version 1
version 1

Whole song

Interactive

793 views 1 this week
1 commentread comment
1 2 3 4 5
3 more votes to show rating
add to favorites
×
Save as Personal and add changes to this tab that will be seen only by you. Learn more ›
×
You can save this tab as Personal to edit and correct it or add notes. All changes will be seen only by you. Learn more »
save as personal
new!
launch autoscroll
font size
0
reset
how to read this tab
guitar tuner
Autoscroll
slow
fast
+/-
esc
set tempo
stop
Tonight The Stars Revolt!
P O W E R M A N   5 0 0 0
Tabbed By Aaron Bridgeman (rokken@sicness.net)

http://bogans.arecool.net

TUNING: Drop D down 1/2 step (Db Ab Db Gb Bb eb)

KEY:
^   = bend up
pm. = palm mute
~   = sustain

RIFF:
eb|------------------------------------|
Bb|------------------------------------|
Gb|------------------------------------|
Db|------11^----------------11^--------|
Ab|-0-0-------0-0--8^--0-0-------5-4-3-|
Db|-0-0-------0-0------0-0-------5-4-3-|
pm  . .       . .      . .

CHORUS:
eb|-------------------------------------------------|
Bb|-------------------------------------------------|
Gb|-------------------------------------------------|
Db|-------------------------------------------------|
Ab|-5-4-3--5-4-3--5-4-3-3~---5-4-3--5-4-3--5-4-3----|
Db|-5-4-3--5-4-3--5-4-3-3~---5-4-3--5-4-3--5-4-3----|

BRIDGE END:
eb|--------------------------------------|
Bb|--------------------------------------|
Gb|--------------------------------------|
Db|--------------------------------------|
Ab|--------------------------------------|
Db|-0--1--2--3--4--5-( 6 and 7 also ? )--|
listen to song for timing, palm mute first then open

Yeah!
Suggest correction
Give kudos to tab author, rate the tab!
1 2 3 4 5
comments
print report bad tab
1 comment total.
0 reply
me_is_devil 10 May 31, 2015 07:16 AM

It's mainly right but a few things are a bit off.

Riff 1 should go like this -

eb|------------------------------------|
Bb|------------------------------------|
Gb|------------------------------------|
Db|------10^----------------10^--------|
Ab|-0-0-------0-0--8^--0-0-------5-4-3-|
Db|-0-0-------0-0------0-0-------5-4-3-|
pm . . . . . .

Which should follow into -

eb|------------------------------------|
Bb|------------------------------------|
Gb|------------------------------------|
Db|------10^----------------10---------|
Ab|-0-0-------0-0--8^--0-0-------------|
Db|-0-0-------0-0------0-0-------------|
pm . . . . . .

And finally for the chorus it should go -

eb|-------------------------------------------------|
Bb|-------------------------------------------------|
Gb|-------------------------------------------------|
Db|-------------------------------------------------|
Ab|-5-4-3--5-4-3~3~3~3~3-----5-4-3--5-4-3--5-4-3----|
Db|-5-4-3--5-4-3~3~3~3~3-----5-4-3--5-4-3--5-4-3----|

Apart from that, it's a very good tab! Keep it up!

guest
Wanna post a correction for this tab? Suggest correction