Oops, an error
Loading. Please wait.

A Escondidas tab

36 views 3 this week
no commentswrite comment
1 2 3 4 5
3 more votes to show rating
add to favorites
×
Save as Personal and add changes to this tab that will be seen only by you. Learn more ›
×
You can save this tab as Personal to edit and correct it or add notes. All changes will be seen only by you. Learn more »
launch autoscroll
font size
0
reset
how to read this tab
guitar tuner
edit
Autoscroll
slow
fast
+/-
esc
set tempo
stop
Que tal a tod@s... Desde Ecuador les dejo con una canción bien
llegadora de Poyo Si la tocan a dos guitarras se va a escuchar
mucho mejor!

Comentarios, sugerencias o peticiones a: fer18.0@


Intro: C Caug   x3

   C                                  E
Quiéreme y busca en mis brazos lo que no tiene el
                              Am
no importa lo demas tu solo mientele y dile que lo amas
     F            Fm           C   Caug     C      Caug
tu y yo sabremos que no es verdad           Ah...

 C                               E
Mírame hincado implorando esto pueda ser
                           Am
no mires hacia abajo ya respondeme estamos perdiendo tiempo
    F            Fm                 C      Dm
podremos vernos cuando el no este ahí...

        G          Dm
Podría ser fantástico
          G         Dm
seria un poco drástico
           F               Fm   G         C
podríamos darnos lo que el otro... No nos da.

Coro:
                        Caug
Y yo puedo encontrar (en ti...) la felicidad (así...)
    Am
tal vez con tiempo acostumbremos
F         Fm      G
y renunciaremos y ya... y ya... y ya...
                 C            Caug
No exista nadie más... aaahhh aaahhh

C   Caug

Solo: Am  G  Am  G  Am  F  Fm  G

e----------8-10-10^(11)r10-8----8-10-8-10/12-12-12-10----10-8--
B-----8-10-------------------10-----------------------10-------
G-7-9----------------------------------------------------------
D--------------------------------------------------------------
A--------------------------------------------------------------
E--------------------------------------------------------------

e--10^(11)r10-8-8--------------------------------------
B--10^(11)r10----------8-10-8--------------------------
G------------------7-9--------9-7----------------------
D---------------------------------10-7-10-7-10-7/5-5---
A------------------------------------------------------
E------------------------------------------------------

e---------------8-10-10^(11)r10-8----8-10-8--10^(11)r10-8-10-8--
B----------8-10-------------------10----------------------------
G------7-9------------------------------------------------------
D--5/7----------------------------------------------------------
A---------------------------------------------------------------
E---------------------------------------------------------------

e--10^(11)r10-8-10-8--       e--10/12-13-12-10-8-10-10^(11)r10-8--
B--10^(11)r10---------  X4   B------------------------------------
G---------------------       G------------------------------------

Coro:

FIN...

      Caug
e|---|---|---|
B|-x-|---|---|
G|-x-|---|---|
D|---|-x-|---|
A|---|---|---|
E|---|---|---|
  1er

            
            
Suggest correction
Creating personal tab
Creating personal tab
You can edit any tab online and save it as your Personal.

You can edit, replace or remove any tab part or add personal notes – all changes will be seen only by you.

Personal tabs can be accessed anytime from any device, even offline.
Learn more »
Give kudos to tab author, rate the tab!
1 2 3 4 5
comments
print report bad tab
guest
Wanna post a correction for this tab? Suggest correction