Oops, an error
Loading. Please wait.

Palabras Invisibles tab

version 2
version 2

Whole song

38 views 1 this week
no commentswrite comment
1 2 3 4 5
3 more votes to show rating
add to favorites
×
Save as Personal and add changes to this tab that will be seen only by you. Learn more ›
×
You can save this tab as Personal to edit and correct it or add notes. All changes will be seen only by you. Learn more »
launch autoscroll
font size
0
reset
how to read this tab
guitar tuner
edit
Autoscroll
slow
fast
+/-
esc
set tempo
stop
Esta cancion es bastante simple, del buen poyo y segovia, aca
se las dejo

Empieza asi

e|------------------0--------------|
B|----------3------------3---------|
G|------0---------------------0----|
D|---5-----------------------------|
A|---------------------------------|
E|---------------------------------|

e|------------------------------------|
B|-----3-------3-------3-------3------|
G|---0---0---0---0---0---0---0---0----|
D|-5-------5-------4-------4----------|
A|------------------------------------|
E|------------------------------------|

e|------------------------------------|
B|-----3-------3-------3-------3------|
G|---0---0---0---0---0---0---0---0----|
D|-2-------2-------0-------0----------|
A|------------------------------------|
E|------------------------------------|

Y lleven mas o menos la cuenta y duespues solo
hasta que empieze a cantar

e|------------------------|
B|-----3-----------3------|
G|---0-----0----0----0----|
D|-5----------5-----------|
A|------------------------|
E|------------------------|

Y el verso es algo asi, solo que son dos voces entonces esta rara
LA parte cantada

e|---------0---------------0---------------0---------------0-------|
B|-----3-------3-------3-------3-------3-------3-------3-------3---|
G|---0---0---0---0---0---0---0---0---0---0---0---0---0---0---0---0-|
D|-5---------------4---------------2---------------0---------------|
A|-----------------------------------------------------------------|
E|-----------------------------------------------------------------|

qedate
mirame caer
tan solo mirame caer
habla ya
suelta el coraje
y no me guardes
mas rencor amor
qiero decir
qe te qedes junto a mi
pero se qe tu
respuesta es no
asi esqe amor
guardo todo mi rencor aqi

Luego cambia el baje un poco asi

e|---------0----------------0-------------|
B|-----3-------3--------3-------3---------|
G|---0---0---0---0----0---0---0---0-------|
D|-0----------------0---------------------|
A|----------------------------------------|
E|----------------------------------------|

Y el verso es asi

e|---------0---------------0---------------0---------------0-------|
B|-----3-------3-------3-------3-------3-------3-------3-------3---|
G|---0---0---0---0---0---0---0---0---0---0---0---0---0---0---0---0-|
D|-----------------0-----------------------------------------------|
A|-3---------------------------------------------------------------|
E|---------------------------------3---------------2---------------|

e|---------0----------------0-------------|
B|-----3-------3--------3-------3---------|
G|---0---0---0---0----0---0---0---0-------|
D|----------------------------------------|
A|----------------------------------------|
E|-0----------------0---------------------|

mirame
callendo en pedasos
por tu adios
dime pues
en qe falle
cual ah sido mi error
qiero seguir
buscando solucion

Y el bajeo hace algo asi y regresa como en el primer verso

e|---------0----------------0-------------|
B|-----3-------3--------3-------3---------|
G|---0---0---0---0----0---0---0---0-------|
D|----------------------------------------|
A|----------------------------------------|
E|-3----------------3---------------------|

quiero hoy
volverte a mirar
y no se si tu me miras
dudo que
tu me vuelvas a mirar
por lo menos dime
SI es verdad
qe desde ayer
te olvidaste ya de mi
y qe no es verdad
y vuelve a mi
no me aferrare
comprendere y
despues me marchare


Y ya entran los acordes


G        Bm
Escúchame
    C            Am
tan solo estoy agonizando
G            Bm
mírame otra ves
   C           Am
y dime si me ves llorando
G           Bm
se feliz también
    C             Am        G
no te preocupes yo aki estaré
          Bm
esperándote
       C       Am
para cuando decidas tu

volver


e|----------------------|
B|-----3-----------3----|
G|---0-----0----0----0--| x 8
D|-5----------5---------|
A|----------------------|
E|----------------------|

e|----------------0-----|
B|--3-------------3-----|
G|--0-------------0-----|
D|--5-------------5-----|
A|----------------------|
E|----------------------|


Y Listo ahi esta la cancion
Cualquier cosa me hechan un mail a gilmjc@ y ya
esta la tablatura, lastime que no tengo a quien dedicarsela
Suggest correction
Creating personal tab
Creating personal tab
You can edit any tab online and save it as your Personal.

You can edit, replace or remove any tab part or add personal notes – all changes will be seen only by you.

Personal tabs can be accessed anytime from any device, even offline.
Learn more »
Give kudos to tab author, rate the tab!
1 2 3 4 5
comments
print report bad tab
guest
Wanna post a correction for this tab? Suggest correction