Oops, an error
Loading. Please wait.

Shined On Me Bass Tab

version 1
version 1

Whole song

Interactive

2,125 views 3 this week
no commentswrite comment
1 2 3 4 5
3 more votes to show rating
add to favorites
launch autoscroll
font size
0
reset
guitar tuner
Autoscroll
slow
fast
+/-
esc
set tempo
stop
Help us to improve Ultimate-Guitar.com Take our survey!
×
Author
Praise Cats – Shine On Me
rik_verpoorten@hotmail.com

Only 3 riffs in the song, just mix then and listen to the song for the timing

Riff 1
G||-----------------------------------------------------|
D||-*-6-6----4-44-5-5-*-6-6----4-44-5-456-6----46-4-----|
A||-*-----6-----------*-----6---------------6-6-----6-4-|
E||-----------------------------------------------------|

G||---------66h7-4~~---------44h5-3~~---|
D||------6-6--------6----------------4--|
A||-----------------------8-8-----------|
E||--7-7--------------6-6---------------|


Riff 2
G||-------------------------------------------------------|
D||-*-6-6----4-44-5-5-*-6-6----4-44-5-5-6-6-4-4-3-3-1-1---|
A||-*-----6-----------*-----6-----------------------------|
E||-------------------------------------------------------|

G||---------66h7-4~~---------44h5-3~~---|
D||------6-6--------6----------------4--|
A||-----------------------8-8-----------|
E||--7-7--------------6-6---------------|


Riff 3
G||-----------------------------------------------------|
D||-*-6-6----4-44-5-5-*-6-6----4-44-5-5-6-6----4--5---6-|
A||-*-----6-----------*-----6---------------6-6---------|
E||---------------------------------------------3---4---|

G||---------66h7-4~~---------44h5-3~~---|
D||------6-6--------6----------------4--|
A||-----------------------8-8-----------|
E||--7-7--------------6-6---------------|
Suggest correction
Give kudos to tab author, rate the tab!
1 2 3 4 5
comments
print report bad tab
guest
You may want to rate the tab now too:
select rating
Wanna post a correction for this tab? Suggest correction