Oops, an error
Loading. Please wait.

Grass And Bones Bass Tab

382 views 1 this week
no commentswrite comment
1 2 3 4 5
please rate
add to favorites
launch autoscroll
font size
0
reset
guitar tuner
Autoscroll
slow
fast
+/-
esc
set tempo
stop
Help us to improve Ultimate-Guitar.com Take our survey!
×
Author
Difficulty
intermediate
(0:10) x1
G|--------|----------------|----------------|
D|--------|----------------|----------------|
A|--------|----------------|----------------|
E|5-5-5-3-|--3-3-3---3-3-3-|--3-3-3---3-3-3-|x3

G|--------|----------------|----------------|
D|--------|----------------|----------------|
A|------5-|--5-5-5---5-5-7-|--7-7-9---9-9-9-|
E|5-5-5---|----------------|----------------|x1

G|--------|----------------|----------------|
D|--------|----------------|----------------|
A|--------|----------------|----------------|
E|5-5-5-3-|--3-3-3---3-3-3-|--3-3-3---3-3-3-|x3

G|--------|----------------|----------------|
D|--------|----------------|----------------|
A|------5-|--5-5-5-5-5-5-5-|----------------|
E|5-5-5---|----------------|7-7-7-7-7-7-7-7-|x1

(0:36) x3
G|----------------|----------------|----------------|----------------------|
D|----------------|----------------|----------------|----------------------|
A|----------------|----------------|----------------|----------------------|
E|3-3---3-3-3---3/|7-7---7-7-7---7\|5-5---5-5-5---5/|10-10---10-10---10----|

G|----------------------|----------------|----------------|----------------|
D|----------------------|----------------|----------------|----------------|
A|10-10---10-10-10---10\|9-9---9-9-9---9\|7-7---7-7-7---7\|5-5---5-5---5---|
E|----------------------|----------------|----------------|----------------|

(1:08) x1
G|----------------|----------------|----------------|----------------|-|
D|----------------|----------------|----------------|----------------| |
A|----------------|----------------|----------------|----------------| |
E|3-3-----3-3-----|3-3-----3h5-5-5-|3-3-----3-3-----|3-3-----3h5-5-5/| |
                                                                       |x2
G|----------------|----------------|----------------|----------------| |
D|----------------|----------------|----------------|----------------| |
A|----------------|----------------|5-5-5-5-5-5-5-5-|7-7-7-7---------| |
E|7-7-7-7-7-7-7-7-|7-7-7-7-7-7-7-7-|----------------|--------5-5-5-5-|-|

G|----------------|----------------|----------------|----------------|
D|----------------|----------------|----------------|----------------|
A|----------------|----------------|----------------|----------------|
E|3-3-----3-3-----|3-3-----3h5-5-5-|3-3-----3-3-----|3-3-----3h5-5-5-|x1

(1:46) x1
G|--------|----------------|----------------|----------------|----------------|
D|--------|----------------|----------------|----------------|----------------|
A|--------|----------------|----------------|--------------5-|--5-5-----------|
E|5-5-5-3-|--3-3-3-3-3-3-5-|--5-5-5-5-5-5-7-|--7-7-7-7-7-7---|------5-5-5-5-3-|x1

G|----------------|----------------|----------------|----------------|
D|----------------|----------------|----------------|----------------|
A|----------------|----------------|--------------5-|--5-5-----------|
E|--3-3-3-3-3-3-5-|--5-5-5-5-5-5-7-|--7-7-7-7-7-7---|------5-5-5-5-3-|x5

(2:40) x4
G|----------------|----------------|----------------|----------------|
D|----------------|----------------|----------------|----------------|
A|----------------|----------------|----------------|----------------|
E|3-3-----3-3-----|5-5-----7-7-----|3-3-----3-3-----|5-5-----7-7-----|

(3:00) x2
G|----------------|----------------|----------------|----------------|
D|----------------|----------------|----------------|----------------|
A|----------------|----------------|----------------|9-9-9-9-10-10-10-10\|
E|3-3-3-3-3-3-3-3/|7-7-7-7\5-5-5-5\|3-3-3-3-3-3-3-3/|----------------|

G|----------------|----------------|------------------------|--------------------|
D|----------------|----------------|------------------------|--------------------|
A|----------------|----------------|------------------------|9-9-9-9-10-10-10-10\|
E|3-3-3-3-3-3-3-3/|7-7-7-7\5-5-5-5/|10-10-10-10-10-10-10-10-|--------------------|

(3:22) x1
G|----------------|----------------|----------------|----------------|
D|----------------|----------------|----------------|----------------|
A|----------------|----------------|----------------|----------------|
E|3-3-----3-3-----|3-3-----3h5-5-5-|3-3-----3-3-----|3-3-----3h5-5-5-|x2

G|----------------|
D|----------------|
A|----------------|
E|3-----------3---|x1

Official Band Site:
http://prawnnj.bandcamp.com/
http://www.topshelfrecords.com/tsr2/_pages/artist_prawn.php     
Suggest correction
Give kudos to tab author, rate the tab!
1 2 3 4 5
comments
print report bad tab
guest
You may want to rate the tab now too:
select rating
Please do not post tabs as comments. Select "correction" instead!