Oops, an error
Loading. Please wait.

Spring River Tab

version 1
version 1

Whole song

Interactive

1,133 views 9 this week
no commentswrite comment
1 2 3 4 5
please rate
add to favorites
launch autoscroll
font size
0
reset
how to read this tab
guitar tuner
Tab Pro tools
  • play this tab
  • loop segment
  • change instrument
  • show fretboard
  • metronome
×
Best way to learn
"Spring River"
Autoscroll
slow
fast
+/-
esc
set tempo
stop
Contributor
Difficulty
novice
(0:36) x8
G|------------|------------|------------|------------|
D|------------|------------|------------|------------|
A|------------|------------|9-9-9-9-9-9-|9-9-9-9-9-9-|
E|4---4-4-4-4/|7---7-7-7-7-|------------|------------|

(1:20) x2
G|------------|------------|------------|------------|
D|------------|------------|------------|------------|
A|6-6---6-6\--|------------|6-6---6-6\--|------------|
E|------------|2-2---2-2---|------------|2-2---9-9-9-|

G|------------|------------|------------|------------|
D|------------|------------|------------|------------|
A|------------|------------|------------|------4-4-4-|
E|7-7---7-7\--|2-2---2-2/--|7-7---7-7\--|2-2---------|

(1:42) x6
G|------------|------------|------------|------------|
D|------------|------------|------------|------------|
A|------------|------------|9-9-9-9-9-9-|9-9-9-9-9-9-|
E|4---4-4-4-4/|7---7-7-7-7-|------------|------------|

(2:16) x4
G|------------|------------|------------|------------|
D|------------|------------|------------|------------|
A|------------|------------|------------|------------|
E|7-7-7-7-7-7-|7-7-7-7-7-7-|9-9-9-9-9-9-|6-6-6-6-6-6-|

(2:38) x1
G|------------|------------|------------|------------|
D|------------|------------|------------|------------|
A|4-----4---4-|6-----6---6-|4-----4---4-|6-----6---6-|
E|------------|------------|------------|------------|

(2:44) x2
G|------------|------------|------------|------------||----|
D|------------|------------|------------|------------||----|
A|------------|------------|------------|------------||----|
E|7-7-7-7-7-7-|7-7-7-7-7-7-|9-9-9-9-9-9-|6-6-6-6-6-6-||7~--|

(3:44) x3
G|----------------|----------------|----------------|----------------|
D|----------------|----------------|----------------|----------------|
A|6---6---6---6-6-|----------------|----------------|----------------|
E|----------------|7---7---7---7-7\|9-9-9-9-9-9-9-9-|9-9-9-9-9-9-9-9-|

G|----------------|----------------|----------------|----------------|||----|
D|----------------|----------------|----------------|----------------|||----|
A|6---6---6---6-6-|----------------|----------------|----------------|||----|
E|----------------|7---7---7---7-7/|2-2-2-2-2-2-2-2-|2-2-2-2-2-2-2-2\|||7~--|

Official Band Site:
http://prawnnj.bandcamp.com/
http://www.topshelfrecords.com/tsr2/_pages/artist_prawn.php
comments
We did not receive enough feedback on this tab! Please rate:
print report bad tab
1 2 3 4 5
I want to post or [tab]
guest
You may want to rate the tab now too:
select rating
Please do not post tabs as comments. Select "correction" instead!