Oops, an error
Loading. Please wait.

Alba tab

18 views 1 this week
no commentswrite comment
1 2 3 4 5
3 more votes to show rating
add to favorites
×
Save as Personal and add changes to this tab that will be seen only by you. Learn more ›
×
You can save this tab as Personal to edit and correct it or add notes. All changes will be seen only by you. Learn more »
launch autoscroll
font size
0
reset
how to read this tab
guitar tuner
edit
Autoscroll
slow
fast
+/-
esc
set tempo
stop
(cejilla en el 3r traste)

INTRO
     D                             C
E|------------------------------|----------------------------|
B|---------------------7--------|-------------------7--------|
G|----7--7-----7--7/9-----9--7--|--9--9-----7--7/9-----9--7--|
D|------------------------------|----------------------------|
A|------------------------------|----------------------------|
E|------------------------------|----------------------------|

    G                             D       Dsus           D
E|-----------------------------|--------------------------------------|
B|-------------------7---------|----------10-----8-----7-----8--7-----|
G|------9----7--7/9-----9--7---|--7----7------7-----7-----7--------7--|
D|---5-------------------------|--------------------------------------|
A|-----------------------------|--------------------------------------|
E|-----------------------------|--------------------------------------|

     D                             C
E|------------------------------|----------------------------|
B|---------------------7--------|-------------------7--------|
G|----7--7-----7--7/9-----9--7--|--9--9-----7--7/9-----9--7--|
D|------------------------------|----------------------------|
A|------------------------------|----------------------------|
E|------------------------------|----------------------------|

   G                      D        Dsus         D    D
E|----------------------|--------------------------|----8-7------------|
B|--------------7-------|------------7----8-7------|-7------10-8-7-----|
G|---9---7--7/9---9--7--|-7-----7--9----------9-7--|---------------9-7-|
D|-5--------------------|-----9--------------------|-------------------|
A|----------------------|--------------------------|-------------------|
E|----------------------|--------------------------|-------------------|

 D
Tarde de domingo
      C                         G
Alba ve volver del bingo, a su abuela
                       D   Dsus D
que trae dos copas de más.


 D
Hoy es veinticinco
      C                            G
y su padre no ha cobrado ya ni el sueldo
                      D   Dsus D
el paro se hace de rogar.


Bm                   D
  Alba sólo quiere huir
                  A
derrumbar imposiciones
                 F#m
olvidar preocupaciones
                   Bm
dar la vida por vivir
                 Em
Alba quiere dibujar
                     G
su futuro en los rincones
                   Gm
recorrer mil callejones

ver el alba al despertar


ESTRIBILLO
D
Alba déjate de lujos
      C
sólo piensas en pensar
          G
si haces caso a tus mayores

te depara un mal final
      D
un final en que tus metas
         C
nunca se hagan realidad
       G
ahora mírate y despierta

ha sido un sueño nada más.

     D                             C
E|------------------------------|----------------------------|
B|---------------------7--------|-------------------7--------|
G|----7--7-----7--7/9-----9--7--|--9--9-----7--7/9-----9--7--|
D|------------------------------|----------------------------|
A|------------------------------|----------------------------|
E|------------------------------|----------------------------|

   G                      D        Dsus         D    D
E|----------------------|--------------------------|----8-7------------|
B|--------------7-------|------------7----8-7------|-7------10-8-7-----|
G|---9---7--7/9---9--7--|-7-----7--9----------9-7--|---------------9-7-|
D|-5--------------------|-----9--------------------|-------------------|
A|----------------------|--------------------------|-------------------|
E|----------------------|--------------------------|-------------------|


(Igual que la primera estrofa)
Fiesta en un garito
es la hora del chupito y ese chico
no te deja de mirar.

Un par de sonrisas
esta noche está resuelta coges puerta
y dos copitas de champán.

Alba sólo quiere huir
derrumbar imposiciones
olvidar preocupaciones
dar la vida por vivir
Alba quiere dibujar
su futuro en los rincones
recorrer mil callejones
ver el alba al despertar

ESTRIBILLO
Alba déjate de lujos
sólo piensas en pensar
si haces caso a tus mayores
te depara un mal final
un final en que tus metas
nunca se hagan realidad
ahora mírate y despierta
ha sido un sueño...

ESTRIBILLO
Alba déjate de lujos
sólo piensas en pensar
si haces caso a tus mayores
te depara un mal final
un final en que tus metas
nunca se hagan realidad
ahora mírate y despierta
ha sido un sueño nada más.

     D                             C
E|------------------------------|----------------------------|
B|---------------------7--------|-------------------7--------|
G|----7--7-----7--7/9-----9--7--|--9--9-----7--7/9-----9--7--|
D|------------------------------|----------------------------|
A|------------------------------|----------------------------|
E|------------------------------|----------------------------|

    G                             D       Dsus           D
E|-----------------------------|--------------------------------------|
B|-------------------7---------|----------10-----8-----7-----8--7-----|
G|------9----7--7/9-----9--7---|--7----7------7-----7-----7--------7--|
D|---5-------------------------|--------------------------------------|
A|-----------------------------|--------------------------------------|
E|-----------------------------|--------------------------------------|

     D                             C
E|------------------------------|----------------------------|
B|---------------------7--------|-------------------7--------|
G|----7--7-----7--7/9-----9--7--|--9--9-----7--7/9-----9--7--|
D|------------------------------|----------------------------|
A|------------------------------|----------------------------|
E|------------------------------|----------------------------|

   G                      D        Dsus         D    D                  D
E|----------------------|--------------------------|----8-7------------|
B|--------------7-------|------------7----8-7------|-7------10-8-7-----|
G|---9---7--7/9---9--7--|-7-----7--9----------9-7--|---------------9-7-|
D|-5--------------------|-----9--------------------|-------------------|
A|----------------------|--------------------------|-------------------|
E|----------------------|--------------------------|-------------------|

            
            
Suggest correction
Creating personal tab
Creating personal tab
You can edit any tab online and save it as your Personal.

You can edit, replace or remove any tab part or add personal notes – all changes will be seen only by you.

Personal tabs can be accessed anytime from any device, even offline.
Learn more »
Give kudos to tab author, rate the tab!
1 2 3 4 5
comments
print report bad tab
guest
Wanna post a correction for this tab? Suggest correction