Oops, an error
Loading. Please wait.

Cars And Girls Bass Tab

1,370 views 9 this week
no commentswrite comment
1 2 3 4 5
please rate
add to favorites
launch autoscroll
font size
0
reset
guitar tuner
Autoscroll
slow
fast
+/-
esc
set tempo
stop
Help us to improve Ultimate-Guitar.com Take our survey!
×
Author
Cars and Girls
Prefab Sprout
Bass Tab
Bassist: Martin McAloon

132BPM, 4/4

Intro

|------------|---------|-7----------|---------|
|-3----------|---------|-----7------|---------|
|-----3------|---------|---------5--|---------|
|---------1--|---------|------------|---------|

|--------------|-----------|-----------|
|-5---2--------|--------55-|-3---------|
|--------------|-----------|-----------|
|--------0-/3--|-----------|---------1-|

Verse

|-------------|-------------|-------------|-------------|
|-------------|-------------|-------------|-------------|
|-------------|-------------|-5---5-5---5-|-5---5-5---5-|
|-1---1-1---1-|-1---1-1---5-|-------------|-------------|

|-------------|-------------|-------------|--------------|
|-2---2-2---2-|-2---2-2---2-|-------------|--------------|
|-------------|-------------|-5---5-5---5-|-5---5-5------|
|-------------|-------------|-------------|----------5\--|

|-------------|-------------|-------------|-------------|
|-------------|-------------|-------------|-------------|
|-------------|-------------|-5---5-5---5-|-5---5-5---5-|
|-1---1-1---1-|-1---1-1---5-|-------------|-------------|

|-------------|-------------|-------------|-------------|
|-2---2-2---2-|-2---2-2---2-|-------------|-------------|
|-------------|-------------|-5---5-5-----|-------------|
|-------------|-------------|-----------0-|-5---5-5---0-|

|-------------|-------------|------------|
|-------------|-------------|------------|
|-------------|-------------|------------|
|-5---5-5---0-|-3---3-3---3-|-3---3-3----|

Chorus

||--------------|--------------|-------------|--------------||
||o-------------|--------------|-------------|-------------o||
||o-5--5---5----|-5--5---5-----|-------------|-------------o||
||------------5-|-----------5\-|-3--3---3--3-|-5--5---5--5--||

|-------------|-------------|-------------|-------------|
|-------------|-------------|-------------|-------------|
|-5--5---5----|-5--5---5--5-|-------------|-------------|
|-----------5-|-------------|-3--3---3--3-|-5--5---5--5-|

|-------------|-------------|-------------|-------------|
|-------------|-------------|-------------|-------------|
|-5--5---5--5-|-5--5---5--5-|-------------|-------------|
|-------------|-------------|-3--3---3--3-|-3--3--3---1-|

Verse

|-------------|-------------|-------------|-------------|
|-------------|-------------|-------------|-------------|
|-------------|-------------|-5---5-5---5-|-5---5-5---5-|
|-1---1-1---1-|-1---1-1---5-|-------------|-------------|

|-------------|-------------|-------------|--------------|
|-2---2-2---2-|-2---2-2---2-|-------------|--------------|
|-------------|-------------|-5---5-5---5-|-5---5--------|
|-------------|-------------|-------------|-------5--5\--|

|-------------|----------------|--------------|-------------| *Dotted eighth
|-------------|----------------|--------------|-------------|
|-------------|----------------|-5---5-5--4h5-|--5--5-5--5--|
|-1---1-1---1-|-1---1-1*-/3*-5-|--------------|-------------|

|--------------|-------------|-------------|-------------|
|--------------|-------------|-------------|-------------|
|-/7---7-7---7-|-7---7-7---7-|-5---5-5-----|-------------|
|--------------|-------------|-----------5-|-5---5-5---0-|

|-------------|-------------|------------|
|-------------|-------------|------------|
|-------------|-------------|------------|
|-5---5-5---0-|-3---3-3---3-|-3---3-3----|

Chorus

||--------------|--------------|-------------|--------------||
||o-------------|--------------|-------------|-------------o||
||o-5--5---5----|-5--5---5-----|-------------|-------------o||
||------------5-|-----------5\-|-3--3---3--3-|-5--5---5--5--||

|-------------|-------------|-------------|-------------|
|-------------|-------------|-------------|-------------|
|-5--5---5----|-5--5---5--5-|-------------|-------------|
|-----------5-|-------------|-3--3---3--3-|-5--5---5--5-|

|-------------|-------------|-------------|------------|
|-------------|-------------|-------------|------------|
|-5--5---5----|-5--5---5--5-|-------------|------------|
|-----------5-|-------------|-3--3---3--0-|-3--3-----3-|

Bridge

|------------|---------|-7-----------|---------|
|-3----------|---------|-----7-------|---------|
|-----3------|---------|----------5--|---------|
|---------1--|------/--|--------5----|---------|

|--------------|-----------|-----------|
|-5---2--------|--------55-|-3---------|
|--------------|-----------|-----------|
|--------0-/3--|-----------|---------1-|

Verse

||-----------|---------|----------|---------|----------|---------|------------||
||o----------|---------|----------|---------|-2--------|---------|-----------o||
||o----------|---------|-5--------|---------|----------|---------|-5---------o||
||--1--------|---------|----------|---------|----------|---------|---------1--||

|----------|---------|----------|---------|
|----------|---------|----------|---------|
|----------|---------|-5--------|---------|
|-1--------|---------|----------|---------|

|-----------------|-----------------|-----------------|-----------------|
|-----------------|-----------------|-----------------|-----------------|
|-----------------|-----------------|-----------------|-----------------|
|-3-3-3-3-3-3-3-3-|-3-3-3-3-3-3-3-3-|-3-3-3-3-3-3-3-3-|-3-3-3-3-3-3-3-3-|

Chorus
                                                            3x
||--------------|--------------|-------------|--------------||
||o-------------|--------------|-------------|-------------o||
||o-5--5---5----|-5--5---5-----|-------------|-------------o||
||------------5-|-----------5\-|-3--3---3--3-|-5--5---5--5--||

|-------------|--------------|-------------|-------------|
|-------------|--------------|-------------|-------------|
|-5--5---5----|-5--5---5-----|-------------|-------------|
|-----------5-|-----------5\-|-3--3---3--0-|-5--5---5--5-|

||--------------|--------------|-------------|--------------||
||o-------------|--------------|-------------|-------------o||
||o-5--5---5----|-5--5---5-----|-------------|-------------o||
||------------5-|-----------5\-|-3--3---3--3-|-5--5---5--5--||

|-------------|--------------|-------------|-------------|
|-------------|--------------|-------------|-------------|
|-5--5---5----|-5--5---5-----|-------------|-------------|
|-----------5-|-----------5\-|-3--3---3--0-|-3--3---3--3-|

Ending

|-------------|---------|-7-----------|---------|
|-3-----------|---------|-----7-------|---------|
|-----3-------|---------|----------5--|---------|
|--------0h1--|------/--|--------5----|---------|

|--------------|---------|----------|---------*|
|-5---2--------|---------|----------|---------*|
|--------------|---------|----------|---------*|
|--------0-/3--|---------|-1--------|---------*|
Suggest correction
Give kudos to tab author, rate the tab!
1 2 3 4 5
comments
print report bad tab
guest
You may want to rate the tab now too:
select rating
Wanna post a correction for this tab? Suggest correction