Oops, an error
Loading. Please wait.

Care Please tab

40 views 1 this week
no commentswrite comment
1 2 3 4 5
2 more votes to show rating
add to favorites
×
Save as Personal and add changes to this tab that will be seen only by you. Learn more ›
×
You can save this tab as Personal to edit and correct it or add notes. All changes will be seen only by you. Learn more »
launch autoscroll
font size
0
reset
how to read this tab
guitar tuner
edit
Autoscroll
slow
fast
+/-
esc
set tempo
stop
Artist - Pregnant Whale Pain
Album - Pregnant Whale Pain
Song - Care, Please
Tabbed By - Basher89

All Guitars - Drop C (C G C F A D)
Piano - Drop C (C G C F A D)

BPM - 115

h   Hammer-on
p   Pull-off
r   Release
b   Bend
br  Bend release
/   Slide up
\   Slide down
~   Vibrato
x   Mute    


[Intro] (0:00)

Piano

d|-------|-------|-------|--------|-------|-------|-------|----------|
A|-------|-------|-------|--------|-------|-------|-------|----------|
F|-------|-------|-6-----|--------|-------|-------|-6-----|----------|
C|-4--7--|-7-----|-x--4--|-9------|-4--7--|-7-----|-x--4--|-9-----7--|
G|-5-----|-x--7--|-5-----|-x--7---|-5-----|-x--7--|-5-----|-x--7-----|
C|-------|-7-----|-------|-7------|-------|-7-----|-------|-7--------|
  *All the chorus/verse piano parts are variations of this piano progression*


[Verse] (0:17)

Piano

d|-------|-------|-------|--------|-------|-------|-------|----------|
A|-------|-------|-------|--------|-------|-------|-------|----------|
F|-------|-------|-6-----|--------|-------|-------|-6-----|----------| 2x
C|-4--7--|-7-----|-x--4--|-9------|-4--7--|-7-----|-x--4--|-9-----7--|
G|-5-----|-x--7--|-5-----|-x--7---|-5-----|-x--7--|-5-----|-x--7-----|
C|-------|-7-----|-------|-7------|-------|-7-----|-------|-7--------|

This is my last hope
If you shook your head ten times
May I talk - one more chance to change your mind
Ten thousand hours and even more
I can't hold it in anymore
It's time for me to be giving birth for
This underwater myth so long
To me it's right, to most it's wrong
Starts from here and it goes on and on and on


[Chorus] (0:50)

Piano

d|------|------|------|--------|
A|------|------|------|--------|
F|-6----|-6----|-6----|-6---4--| 2x
C|------|------|------|--------|
G|-5----|------|------|--------|
C|------|-4----|-2----|-1------|

d|------|------|---------|
A|------|------|---------|
F|-6----|-4----|-2-------|
C|------|------|---------|
G|------|------|---------|
C|-0----|-2----|-4-------|

Won't you be my concern, I would love to be your savior
Won't you go where you need me, I would love to set you free
Won't you die for me today?


[Verse 2] (1:15)

Piano

d|-------|-------|-------|--------|-------|-------|-------|--------|
A|-------|-------|-------|--------|-------|-------|-------|--------|
F|-------|-------|-6-----|--------|-------|-------|-6-----|--------| 2x
C|-4--7--|-7-----|----4--|-9------|-4--7--|-7-----|----4--|-9------|
G|-x-----|-x--7--|-------|-x--7---|-x-----|-x--7--|-------|-x--7---|
C|-0-----|-7-----|-0-----|-7------|-0-----|-7-----|-0-----|-7------|

A melody that can only be heard by few
The frequency may be too low or too high for you
But if you even whisper, you might just have
To put your ear closer to my mouth
And let me scream at you


[Chorus 2] (1:49)

Piano

d|-------|-------|-------|---------------|-------|-------|-------|---------------|
A|-------|-------|-------|----2----------|-------|-------|-------|----2----------|
F|-------|-------|-6-----|-4----4--2---2-|-------|-------|-6-----|-4----4--2---2-|
C|-4--7--|-7--4--|----4--|-----------4---|-4--7--|-7--4--|----4--|-----------4---|
G|-5-----|-------|-------|---------------|-------|-------|-------|---------------|
C|-------|-4-----|-2-----|-1-------------|-0-----|-4-----|-2-----|-1-------------|

d|-------|------------|---------|-------------------------|
A|-------|------------|---------|-------------------------|
F|-------|-2---2---1--|-2-------|-------------------9--9--|
C|-4--7--|------------|---------|-4--4--6--6--7--7--9--9--|
G|-------|------------|---------|-4--4--6--6--7--7--7--7--|
C|-0-----|-2----------|-4-------|-4--4--6--6--7--7--------|

Guitar 1 (2:10)

d|-------|-------------------------|
A|-------|-------------------------|
F|-------|-------------------9--9--|
C|-4-----|-4--4--6--6--7--7--9--9--|
G|-4-----|-4--4--6--6--7--7--7--7--|
C|-4-----|-4--4--6--6--7--7--------|
  *swell into chord)

Guitar 2 (1:58)

d|-------------------------|     |------------|---------|
A|-14-14-14-14-14-14-14-14-|     |-----14-----|---------|
F|-11-11-11-11-11-11-11-11-| 6x  |-11~--------|---------|
C|-------------------------|     |------------|---------|
G|-------------------------|     |------------|---------|
C|-------------------------|     |------------|---------|

Won't you be my concern, I would love to be your savior
Won't you go where you need me, I would love to set you free
Won't you die for me today?


[Solo] (2:13)

Piano + Guitar 1

d|---------|---------|---------|-----------------|---------|---------|---------|-----------------|
A|---------|---------|---------|-----------------|---------|---------|---------|-----------------|
F|-7---7---|---------|-9---9---|-------------9-9-|-7---7---|---------|---------|-------------9-9-|
C|-7---7---|-7---7---|-9---9---|-4-4-6-6-7-7-9-9-|-7---7---|-7---7---|-6---6---|-4-4-6-6-7-7-9-9-|
G|-5---5---|-7---7---|-7---7---|-4-4-6-6-7-7-7-7-|-5---5---|-7---7---|-7---7---|-4-4-6-6-7-7-7-7-|
C|---------|-7---7---|---------|-4-4-6-6-7-7-----|---------|-7---7---|-6---6---|-4-4-6-6-7-7-----|

d|---------|---------|---------|-----------------|---------|---------|---------|--------------------------|
A|---------|---------|---------|-----------------|---------|---------|---------|--------------------------|
F|-7---7---|---------|-9---9---|-------------9-9-|-7---7---|---------|---------|--------------------------|
C|-7---7---|-7---7---|-9---9---|-4-4-6-6-7-7-9-9-|-7---7---|-7---7---|-6---6---|-4-4-7-4-7-4--7-4-7-4-4-4-|
G|-5---5---|-7---7---|-7---7---|-4-4-6-6-7-7-7-7-|-5---5---|-7---7---|-7---7---|-4-4-7-4-7-4--7-4-7-4-4-4-|
C|---------|-7---7---|---------|-4-4-6-6-7-7-----|---------|-7---7---|-6---6---|-4-4-7-4-7-4--7-4-7-4-4-4-|

d|---------|---------|---------|-----------------|---------|---------|---------|-------------|
A|---------|---------|---------|-----------------|---------|---------|---------|-------------|
F|-7---7---|---------|-9---9---|-------------9-9-|-7---7---|---------|---------|----------9--|
C|-7---7---|-7---7---|-9---9---|-4-4-6-6-7-7-9-9-|-7---7---|-7---7---|-6---6---|-4--6--7--9--|
G|-5---5---|-7---7---|-7---7---|-4-4-6-6-7-7-7-7-|-5---5---|-7---7---|-7---7---|-4--6--7--7--|
C|---------|-7---7---|---------|-4-4-6-6-7-7-----|---------|-7---7---|-6---6---|-4--6--7-----|
                     |  Piano  |                           |  Piano  |         |    Piano    |

d|---------|---------|---------|-----------------|---------|---------|---------|-----------------|
A|---------|---------|---------|-----------------|---------|---------|---------|-----------------|
F|-7---7-7-|---------|-9---9-9-|-------------9-9-|-7---7-7-|---------|---------|-------------9-9-|
C|-7---7-7-|-7---7-7-|-9---9-9-|-4-4-6-6-7-7-9-9-|-7---7-7-|-7---7-7-|-6---6-6-|-4-4-6-6-7-7-9-9-|
G|-5---5-5-|-7---7-7-|-7---7-7-|-4-4-6-6-7-7-7-7-|-5---5-5-|-7---7-7-|-7---7-7-|-4-4-6-6-7-7-7-7-|
C|---------|-7---7-7-|---------|-4-4-6-6-7-7-----|---------|-7---7-7-|-6---6-6-|-4-4-6-6-7-7-----|


Guitar 2

d|-----------------|-----------------------|------------------------|----------------|
A|-15~---15--15-15-|-----------------------|-/17~-17\---------------|----------17-17-|
F|-----------------|-16br-14-14~--11-14-14-|------------13br-11-11~-|----14-14-------|
C|-----------------|-----------------------|------------------------|----------------|
G|-----------------|-----------------------|------------------------|----------------|
C|-----------------|-----------------------|------------------------|----------------|

d|-----------------|-----------------------|-----------------------------|-----------------|
A|-15~---15--15-17-|-----------------------|-----------------------------|-----------------|
F|-----------------|-16br-14-14~--11-14-14-|-13~--13-14-16--14--13h14p13-|-11~--9--11--13--|
C|-----------------|-----------------------|-----------------------------|-----------------|
G|-----------------|-----------------------|-----------------------------|-----------------|
C|-----------------|-----------------------|-----------------------------|-----------------|

d|----------------|-------------------|--------------------------|----------------|
A|----------------|-------------------|--------------------------|----------------|
F|-13b---13--13r--|-11-13--13br-14-15-|-16~---16--16br-16br-16br-|-16b---16-16r---|
C|----------------|-------------------|--------------------------|----------------|
G|----------------|-------------------|--------------------------|----------------|
C|----------------|-------------------|--------------------------|----------------|

d|----------------|-----------------------|-----------------------------|------------------|
A|----------------|------17---------------|-----------------------------|--------------13--|
F|---14~--14--16--|-16b-----16r--14-14-14-|-13~--13-14-16--14--13h14p13-|-14~--14--16------|
C|----------------|-----------------------|-----------------------------|------------------|
G|----------------|-----------------------|-----------------------------|------------------|
C|----------------|-----------------------|-----------------------------|------------------|

d|------17-----------17------|------17-----------17------|------16-----------16------|---------------|
A|-14-15--15-14-14-15--15-14-|-13-14--14-13-13-14--14-13-|-11-12--12-11-11-12--12-11-|-10~--10-12-13-|
F|---------------------------|---------------------------|---------------------------|---------------|
C|---------------------------|---------------------------|---------------------------|---------------|
G|---------------------------|---------------------------|---------------------------|---------------|
C|---------------------------|---------------------------|---------------------------|---------------|

d|------17-----------17------|------17-----------17------|------16-----------16------|------12-14-16-|
A|-14-15--15-14-14-15--15-14-|-13-14--14-13-13-14--14-13-|-11-12--12-11-11-12--12-11-|-10~-----------|
F|---------------------------|---------------------------|---------------------------|---------------|
C|---------------------------|---------------------------|---------------------------|---------------|
G|---------------------------|---------------------------|---------------------------|---------------|
C|---------------------------|---------------------------|---------------------------|---------------|
                           (Switch to clean for this measure)

d|-17~--17-19b--19--|-19r--17-19b--19-19r-17-|-19--17-19-19b-19r--17-19-|-19b-19r--17-19-19b-19-19r-|
A|------------------|------------------------|--------------------------|---------------------------|
F|------------------|------------------------|--------------------------|---------------------------|
C|------------------|------------------------|--------------------------|---------------------------|
G|------------------|------------------------|--------------------------|---------------------------|
C|------------------|------------------------|--------------------------|---------------------------|

d|-19-17-19-17-19-22-19-17-19b-|-19b-19r-19br-19br-19br-|-22-19-19-22-19-22-24-|-24-24-24b-24-24-24-24r-|
A|-----------------------------|-x---x---x----x----x----|----------------------|------------------------|
F|-----------------------------|--------------x----x----|----------------------|------------------------|
C|-----------------------------|------------------------|----------------------|------------------------|
G|-----------------------------|------------------------|----------------------|------------------------|
C|-----------------------------|------------------------|----------------------|------------------------|
    (Play this last part tremolo picked and sloppily)


[Outro] (3:20)

Piano

d|------|------|------|------|------|------|------|-------|
A|------|------|------|------|------|------|-9----|-10----|
F|-2----|-9----|-4----|-6--4-|-2----|-9----|-9----|-11----|
C|-4----|-11---|-6----|-7--7-|-4----|-11---|-9----|-11----|
G|-5----|-12---|-7----|-6----|-5----|-12---|------|-------|
C|------|------|------|------|------|------|------|-------|

By this part of the road I've learned how to walk
Now I'll be at home until the flies knock on my door
Suggest correction
Creating personal tab
Creating personal tab
You can edit any tab online and save it as your Personal.

You can edit, replace or remove any tab part or add personal notes – all changes will be seen only by you.

Personal tabs can be accessed anytime from any device, even offline.
Learn more »
Give kudos to tab author, rate the tab!
1 2 3 4 5
comments
print report bad tab
guest
You may want to rate the tab now too:
select rating
Wanna post a correction for this tab? Suggest correction