Oops, an error
Loading. Please wait.

Confessions And The Birthday Party tab

82 views 1 this week
no commentswrite comment
1 2 3 4 5
2 more votes to show rating
add to favorites
×
Save as Personal and add changes to this tab that will be seen only by you. Learn more ›
×
You can save this tab as Personal to edit and correct it or add notes. All changes will be seen only by you. Learn more »
launch autoscroll
font size
0
reset
how to read this tab
guitar tuner
edit
Autoscroll
slow
fast
+/-
esc
set tempo
stop
Artist - Pregnant Whale Pain
Album - Pregnant Whale Pain
Song - Confessions & The Birthday Party
Tabbed By - Basher89

All Guitars - Drop C (C G C F A d)

BPM - 104

b - Bend
r - Release
PM - Palm Mute
/ - Slide Up
\ - Slide Down
t - Tremolo Pick
h - Hammer On
p - Pull Off
~ - Vibrato
x - Mute
() - Natural Harmonic
*  - Artificial Harmonic


[Intro] (0:00)

Clean Guitar 1

d|----------------------|-----------|----------------------|-----------|----------------------|
A|----------------------|-----------|----------------------|-----------|----------------------|
F|----------------------|-----------|----------------------|-----------|----------------------|
C|----------------------|-----------|----------------------|-----------|----------------------|
G|----------------------|-----------|----------------------|-----------|----------------------|
C|-0---2--0--3--4--4--0-|--0--------|-0---2--0--3--4--4--4-|--4--------|-0---2--0--3--4--4--3-|

d|----------|----------|--------|----------------------|----------|----------------------|----------|
A|----------|----------|--------|----------------------|----------|----------------------|----------|
F|----------|----------|--------|----------------------|----------|----------------------|----------|
C|----------|----------|--------|----------------------|----------|----------------------|----------|
G|----------|----------|--------|----------------------|----------|----------------------|----------|
C|--3-----2-|--2-----1-|--1-----|-0---2--0--3--4--4--0-|--0-------|-0---2--0--3--4--4--4-|--4-------|

Clean Guitar 2

d|----------|----------------------|----------|----------------------|----------|
A|----------|----------------------|----------|----------------------|----------|
F|----------|----------------------|----------|----------------------|----------|
C|----------|----7--4--6--7--6--4--|----------|----6--4--6--7--6--4--|----------|
G|----------|----------------------|----------|----------------------|----------|
C|----------|----------------------|----------|----------------------|----------|

d|----------------|-------------------|-------------------------|
A|----------------|-------------------|-------------------------|
F|----------------|-------------------|-------------------------|
C|----7--4--7--7b-|----6--4--6--7--6--|----7--4--6--7--6h7p6-4--|
G|----------------|-------------------|-------------------------|
C|----------------|-------------------|-------------------------|

d|----------|----------------------|----------|----------------------|
A|----------|----------------------|----------|----------------------|
F|----------|----------------------|----------|----------------------|
C|----------|----7--4--6--7--6--4--|----------|----6--4--6--7--6--4--|
G|----------|----------------------|----------|----------------------|
C|----------|----------------------|----------|----------------------|


[Verse] (0:28)

Clean Guitar 1

d|----------------------|-----------|----------------------|-----------|----------------------|----------|
A|----------------------|-----------|----------------------|-----------|----------------------|----------|
F|----------------------|-----------|----------------------|-----------|----------------------|----------|
C|----------------------|-----------|----------------------|-----------|----------------------|----------|
G|----------------------|-----------|----------------------|-----------|----------------------|----------|
C|-0---2--0--3--4--4--0-|--0--------|-0---2--0--3--4--4--4-|--4--------|-0---2--0--3--4--4--0-|--0-------|

d|----------------------|----------|----------|----------|
A|----------------------|----------|----------|----------|
F|----------------------|----------|----------|----------|
C|----------------------|----------|----------|----------|
G|----------------------|----------|----------|----------|
C|-0---2--0--3--4--4--3-|--3-----2-|--2-----1-|--1-------|

d|-----------------------|----------|-----------------------|
A|-----------------------|----------|-----------------------|
F|-----------------------|----------|-----------------------|
C|-----------------------|----------|-----------------------|
G|-----------------------|----------|-----------------------|
C|--0---2--0--3--4--4--0-|--0-------|-0---2--0--3--4--4--3--|

Clean Guitar 2

d|----------|------------------------|----------|---------------------|----------|------------------------|
A|----------|------------------------|----------|---------------------|----------|------------------------|
F|----------|------------------------|----------|---------------------|----------|------------------------|
C|----------|---7--4--6--7--6h7p6-4--|----------|---6--4--6--7--6--4--|----------|---7--4--6--7--6h7p6-4--|
G|----------|------------------------|----------|---------------------|----------|------------------------|
C|----------|------------------------|----------|---------------------|----------|------------------------|

d|----------|------------|------------------|------------------------|----------|---------------------|
A|----------|------------|------------------|------------------------|----------|---------------------|
F|----------|------------|------------------|------------------------|----------|---------------------|
C|----------|----7---7---|---6--4--6--7--6--|---7--4--6--7--6h7p6-4--|----------|---7--4--6--7--6--4--|
G|----------|------------|------------------|------------------------|----------|---------------------|
C|----------|------------|------------------|------------------------|----------|---------------------|

Flute

d|-------|-------------7--|--9-------|---9-10--9-|-16----14-|---16-14-----|---14-16-16-17~|----16-14-|
A|--10---|--10----9-10----|----------|-----------|----------|---------15--|---------------|----------|
F|-------|-----11---------|----------|-----------|----------|-------------|---------------|----------|
C|-------|----------------|----------|-----------|----------|-------------|---------------|----------|
G|-------|----------------|----------|-----------|----------|-------------|---------------|----------|
C|-------|----------------|----------|-----------|----------|-------------|---------------|----------|

I'll come to you, help you smear your bread
Seems medicine and death draws us close, we laugh
But secretly we'd rather cry
(She's my own flesh, she's my own blood
I must not lose her)


[Chorus] (0:59)

Guitar 1

d|-------------------------|-------------|-------------------------|-------------|-------------------------|
A|-------------------------|-------------|-------------------------|-------------|-------------------------|
F|-10-10-10-10-10-10-10-10-|-14-14-14-14-|-10-10-10-10-10-10-10-10-|-14-14-14-14-|-10-10-10-10-10-10-10-10-|
C|-------------------------|-------------|-------------------------|-------------|-------------------------|
G|-8--8--8--8--8--8--8--8--|-12-12-12-12-|-8--8--8--8--8--8--8--8--|-12-12-12-12-|-8--8--8--8--8--8--8--8--|
C|-------------------------|-------------|-------------------------|-------------|-------------------------|

d|------------|-----------------------|-------------------------|-------------------------|
A|------------|-----------------------|-------------------------|-------------------------|
F|-14-14\--12-|--12-12-12-12-12-12-12-|-10-10-10-10-10-10-10-10-|-10-10-10-10-10-10-10-10-|
C|------------|-----------------------|-------------------------|-------------------------|
G|-12-12\--10-|--10-10-10-10-10-10-10-|-8--8--8--8--8--8--8--8--|-8--8--8--8--8--8--8--8--|
C|------------|-----------------------|-------------------------|-------------------------|

Guitar 2

d|-8--8--8--8--8--8--8--8--|-9--9--9--9--|-8--8--8--8--8--8--8--8--|-9--9--9--9--|-8--8--8--8--8--8--8--8--|
A|-10-10-10-10-10-10-10-10-|-10-10-10-10-|-10-10-10-10-10-10-10-10-|-10-10-10-10-|-10-10-10-10-10-10-10-10-|
F|-10-10-10-10-10-10-10-10-|-9--9--9--9--|-10-10-10-10-10-10-10-10-|-9--9--9--9--|-10-10-10-10-10-10-10-10-|
C|-------------------------|-------------|-------------------------|-------------|-------------------------|
G|-------------------------|-------------|-------------------------|-------------|-------------------------|
C|-------------------------|-------------|-------------------------|-------------|-------------------------|

d|-9--9\---7-|--7--7--7--7--7--7--7--|-5--5--5--5--5--5--5--5--|-5--5--5--5--5--5--5--5--|
A|-10-10\--8-|--8--8--8--8--8--8--8--|-6--6--6--6--6--6--6--6--|-5--5--5--5--5--5--5--5--|
F|-9--9\---7-|--7--7--7--7--7--7--7--|-5--5--5--5--5--5--5--5--|-5--5--5--5--5--5--5--5--|
C|-----------|-----------------------|-------------------------|-------------------------|
G|-----------|-----------------------|-------------------------|-------------------------|
C|-----------|-----------------------|-------------------------|-------------------------|

Don't like what you see, every night every day
Don't wanna hear you say it's mine
I want you to hear me say it one more time


[Post Chorus] (1:16)

Clean Guitar 1

d|----------------------|-----------|----------------------|-----------|----------------------|----------|
A|----------------------|-----------|----------------------|-----------|----------------------|----------|
F|----------------------|-----------|----------------------|-----------|----------------------|----------|
C|----------------------|-----------|----------------------|-----------|----------------------|----------|
G|----------------------|-----------|----------------------|-----------|----------------------|----------|
C|-0---2--0--3--4--4--0-|--0--------|-0---2--0--3--4--4--4-|--4--------|-0---2--0--3--4--4--0-|--0-------|

d|-------------------|----------|
A|-------------------|----------|
F|-------------------|----------|
C|-------------------|----------|
G|-------------------|----------|
C|-0---2--0--3--4--4-|--4-------|

Clean Guitar 2

d|----------|---------------------|----------|---------------------|----------|------------------------|
A|----------|---------------------|----------|---------------------|----------|------------------------|
F|----------|---------------------|----------|---------------------|----------|------------------------|
C|----------|---7--4--6--7--6--4--|----------|---6--4--6--7--6--4--|----------|---7--4--6--7--6h7p6-4--|
G|----------|---------------------|----------|---------------------|----------|------------------------|
C|----------|---------------------|----------|---------------------|----------|------------------------|

Flute

d|-10-------|---9-7-9-10-12--|--14-----|----14--14h15--14-|-21~---22-|----22-24-22-|----22-24-22-21~|
A|----------|----------------|---------|------------------|----------|-------------|----------------|
F|----------|----------------|---------|------------------|----------|-------------|----------------|
C|----------|----------------|---------|------------------|----------|-------------|----------------|
G|----------|----------------|---------|------------------|----------|-------------|----------------|
C|----------|----------------|---------|------------------|----------|-------------|----------------|


[Verse 2] (1:35)

Bass until 1:58, where clean guitars re-enter

Clean Guitar 1

d|-----------------------|----------|-----------------------|
A|-----------------------|----------|-----------------------|
F|-----------------------|----------|-----------------------|
C|-----------------------|----------|-----------------------|
G|-----------------------|----------|-----------------------|
C|--0---2--0--3--4--4--0-|--0-------|-0---2--0--3--4--4--3--|

Clean Guitar 2

d|----------|------------------------|----------|
A|----------|------------------------|----------|
F|----------|------------------------|----------|
C|----------|---7--4--6--7--6h7p6-4--|----------|
G|----------|------------------------|----------|
C|----------|------------------------|----------|

Every time he spends on a small nou camp
She loses a chance, he should be in our place
I guess he would let her die
(She's my own flesh, she's my own blood
I must not lose her)


[Chorus 2] (2:05)

Guitar 1

d|-------------------------|-------------|-------------------------|-------------|-------------------------|
A|-------------------------|-------------|-------------------------|-------------|-------------------------|
F|-10-10-10-10-10-10-10-10-|-14-14-14-14-|-10-10-10-10-10-10-10-10-|-14-14-14-14-|-10-10-10-10-10-10-10-10-|
C|-------------------------|-------------|-------------------------|-------------|-------------------------|
G|-8--8--8--8--8--8--8--8--|-12-12-12-12-|-8--8--8--8--8--8--8--8--|-12-12-12-12-|-8--8--8--8--8--8--8--8--|
C|-------------------------|-------------|-------------------------|-------------|-------------------------|

d|------------|-----------------------|-------------------------|-------------------------|
A|------------|-----------------------|-------------------------|-------------------------|
F|-14-14\--12-|--12-12-12-12-12-12-12-|-10-10-10-10-10-10-10-10-|-10-10-10-10-10-10-10-10-|
C|------------|-----------------------|-------------------------|-------------------------|
G|-12-12\--10-|--10-10-10-10-10-10-10-|-8--8--8--8--8--8--8--8--|-8--8--8--8--8--8--8--8--|
C|------------|-----------------------|-------------------------|-------------------------|

Guitar 2

d|-8--8--8--8--8--8--8--8--|-9--9--9--9--|-8--8--8--8--8--8--8--8--|-9--9--9--9--|-8--8--8--8--8--8--8--8--|
A|-10-10-10-10-10-10-10-10-|-10-10-10-10-|-10-10-10-10-10-10-10-10-|-10-10-10-10-|-10-10-10-10-10-10-10-10-|
F|-10-10-10-10-10-10-10-10-|-9--9--9--9--|-10-10-10-10-10-10-10-10-|-9--9--9--9--|-10-10-10-10-10-10-10-10-|
C|-------------------------|-------------|-------------------------|-------------|-------------------------|
G|-------------------------|-------------|-------------------------|-------------|-------------------------|
C|-------------------------|-------------|-------------------------|-------------|-------------------------|

d|-9--9\---7-|--7--7--7--7--7--7--7--|-5--5--5--5--5--5--5--5--|-5--5--5--5--5--5--5--5--|
A|-10-10\--8-|--8--8--8--8--8--8--8--|-6--6--6--6--6--6--6--6--|-5--5--5--5--5--5--5--5--|
F|-9--9\---7-|--7--7--7--7--7--7--7--|-5--5--5--5--5--5--5--5--|-5--5--5--5--5--5--5--5--|
C|-----------|-----------------------|-------------------------|-------------------------|
G|-----------|-----------------------|-------------------------|-------------------------|
C|-----------|-----------------------|-------------------------|-------------------------|


Guitars 1 + 2

d|----------------------|-----------------------|      |-----------|
A|----------------------|-----------------------|      |-----------|
F|----------------------|-----------------------| 3x   |-----------|
C|-7----7\---0--0--0--3-|--3--3--3--3--3--3--3--|      |-5---5--5--|
G|-7----7\---0--0--0--3-|--3--3--3--3--3--3--3--|      |-5---5--5--|
C|-7----7\---0--0--0--3-|--3--3--3--3--3--3--3--|      |-5---5--5--|

Don't like what you see every night every day
Don't wanna read you said it's mine
I want you to hear me say it one more time
I love you, you know I do
'Til the end


[Breakdown] (2:38)

Guitar 1

d|----------------------|----------|----------------------|----------|
A|----------------------|----------|----------------------|----------|
F|----------------------|----------|----------------------|----------|
C|-0---2--0--3--4--4--0-|--0-------|-0---2--0--3--4--4--4-|----------|
G|-0---2--0--3--4--4--0-|--0-------|-0---2--0--3--4--4--4-|----------|
C|-0---2--0--3--4--4--0-|--0-------|-0---2--0--3--4--4--4-|----------|

d|----------------------|----------|----------------------|----------|
A|----------------------|----------|----------------------|----------|
F|----------------------|----------|----------------------|----------|
C|-0---2--0--3--4--4--0-|----------|-0---2--0--3--4--4--4-|----------|
G|-0---2--0--3--4--4--0-|----------|-0---2--0--3--4--4--4-|----------|
C|-0---2--0--3--4--4--0-|----------|-0---2--0--3--4--4--4-|----------|

d|---------------------------|-------------------------|-----------------------|----------|
A|---------------------------|-------------------------|-----------------------|----------|
F|---------------------------|-------------------------|-----------------------|----------|
C|-0-0-0---2--0--3--4--4-4-0-|--0-0-2--0--3--4--4--0-0-|-0---2--0--3--4--4--4--|----------|
G|-0-0-0---2--0--3--4--4-4-0-|--0-0-2--0--3--4--4--0-0-|-0---2--0--3--4--4--4--|----------|
C|-0-0-0---2--0--3--4--4-4-0-|--0-0-2--0--3--4--4--0-0-|-0---2--0--3--4--4--4--|----------|
PM                              |-|                |-|

d|---------------------------|-------------------------|--------------------------|
A|---------------------------|-------------------------|--------------------------|
F|---------------------------|-------------------------|--------------------10-10-|
C|-0-0-0---2--0--3--4--4-4-0-|--0-0-2--0--3--4--4--0-0-|-0---2--0--3--4--4--------|
G|-0-0-0---2--0--3--4--4-4-0-|--0-0-2--0--3--4--4--0-0-|-0---2--0--3--4--4--8--8--|
C|-0-0-0---2--0--3--4--4-4-0-|--0-0-2--0--3--4--4--0-0-|-0---2--0--3--4--4--------|
PM                              |-|                |-|

Guitar 2

d|--------|--------------|---------|---------|----------|------------|-----------------|---------------|
A|--------|--------------|---------|---------|----------|------------|-----------------|---------------|
F|--------|--------------|---------|-----6b--|-12b---11-|---13-11-7--|---11-13-13b-13b-|--13b-13br-11\-|
C|-7------|--6-4-6-7-9b--|--9b-9b--|-r-------|----------|------------|-----------------|---------------|
G|--------|--------------|---------|---------|----------|------------|-----------------|---------------|
C|--------|--------------|---------|---------|----------|------------|-----------------|---------------|

d|----------|      |-------------------|
A|----------|      |-------------------|
F|----------| 3x   |--13b==13br-13-11\-|
C|----------|      |-------------------|
G|----------|      |-------------------|
C|----------|      |-------------------|

Guitar 3

d|--------|--------------|---------|---------|----------|------------|----------------|----------|
A|--------|--------------|---------|---------|-12b---15-|--15-17-15--|----15-17-15-14-|----------|
F|-6b-----|--6-4-6-7-9b--|--9b-9b--|----11b--|----------|------------|----------------|----------|
C|--------|--------------|---------|---------|----------|------------|----------------|----------|
G|--------|--------------|---------|---------|----------|------------|----------------|----------|
C|--------|--------------|---------|---------|----------|------------|----------------|----------|

d|----------|      |-----------------------|
A|----------| 3x   |--17---15-17-15-15-14\-|
F|----------|      |-----------------------|
C|----------|      |-----------------------|
G|----------|      |-----------------------|
C|----------|      |-----------------------|


[Chorus 3] (3:13)

Guitar 1

d|-------------------------|-------------|-------------------------|-------------|-------------------------|
A|-------------------------|-------------|-------------------------|-------------|-------------------------|
F|-10-10-10-10-10-10-10-10-|-14-14-14-14-|-10-10-10-10-10-10-10-10-|-14-14-14-14-|-10-10-10-10-10-10-10-10-|
C|-------------------------|-------------|-------------------------|-------------|-------------------------|
G|-8--8--8--8--8--8--8--8--|-12-12-12-12-|-8--8--8--8--8--8--8--8--|-12-12-12-12-|-8--8--8--8--8--8--8--8--|
C|-------------------------|-------------|-------------------------|-------------|-------------------------|

d|------------|-----------------------|-------------------------|-------------------------|
A|------------|-----------------------|-------------------------|-------------------------|
F|-14-14\--12-|--12-12-12-12-12-12-12-|-10-10-10-10-10-10-10-10-|-10-10-10-10-10-10-10-10-|
C|------------|-----------------------|-------------------------|-------------------------|
G|-12-12\--10-|--10-10-10-10-10-10-10-|-8--8--8--8--8--8--8--8--|-8--8--8--8--8--8--8--8--|
C|------------|-----------------------|-------------------------|-------------------------|
                                                     *Massive slowdown*

Guitar 2

d|-8--8--8--8--8--8--8--8--|-9--9--9--9--|-8--8--8--8--8--8--8--8--|-9--9--9--9--|-8--8--8--8--8--8--8--8--|
A|-10-10-10-10-10-10-10-10-|-10-10-10-10-|-10-10-10-10-10-10-10-10-|-10-10-10-10-|-10-10-10-10-10-10-10-10-|
F|-10-10-10-10-10-10-10-10-|-9--9--9--9--|-10-10-10-10-10-10-10-10-|-9--9--9--9--|-10-10-10-10-10-10-10-10-|
C|-------------------------|-------------|-------------------------|-------------|-------------------------|
G|-------------------------|-------------|-------------------------|-------------|-------------------------|
C|-------------------------|-------------|-------------------------|-------------|-------------------------|

d|-9--9\---7-|--7--7--7--7--7--7--7--|-5--5--5--5--5--5--5--5--|-5--5--5--5--5--5--5--5--|
A|-10-10\--8-|--8--8--8--8--8--8--8--|-6--6--6--6--6--6--6--6--|-5--5--5--5--5--5--5--5--|
F|-9--9\---7-|--7--7--7--7--7--7--7--|-5--5--5--5--5--5--5--5--|-5--5--5--5--5--5--5--5--|
C|-----------|-----------------------|-------------------------|-------------------------|
G|-----------|-----------------------|-------------------------|-------------------------|
C|-----------|-----------------------|-------------------------|-------------------------|
                                                     *Massive slowdown*


Guitars 1 + 2

d|----------------------------|-----------------------|      |--------------------|
A|----------------------------|-----------------------|      |--------------------|
F|----------------------------|-----------------------| 3x   |--------------------|
C|-7----7--7-7--0---0-0-0---3-|--3--3--3--3--3--3--3--|      |-5--5--5-5-5--0-----|
G|-7----7--7-7--0---0-0-0---3-|--3--3--3--3--3--3--3--|      |-5--5--5-5-5--0-----|
C|-7----7--7-7--0---0-0-0---3-|--3--3--3--3--3--3--3--|      |-5--5--5-5-5--0-----|
                                                                       Let ring out

Guitar 1 (4:26)

d|----------|----------|------------|---------------|----------|----------|
A|----------|----------|------------|---------------|----------|----------|
F|----------|----------|------------|---------------|----------|----------|
C|----------|----------|--1/3-3-3-3-|-3~--0--3-5-5b-|----5br3--|----------|
G|-0---0-3b-|-------5b-|------------|---------------|----------|----------|
C|----------|----------|------------|---------------|----------|----------|

Don't like what you say every night every day
Don't wanna hear you say it's mine
I want you to hear me say it one more time
I love you, you know I do
'Til the end


[Solo] (4:40)

Guitar 1

d|------------------------|-------------------------|--------------------------|
A|------------------------|-------------------------|--------------------------|
F|------------------------|-------------------------|--------------------------|
C|-7---7--7-7--5--3/5--3--|-5---5--5/7--5--3--3/5\3-|-5---5--5-5-5\3--3--3/5\3-|
G|------------------------|-------------------------|--------------------------|
C|-7---7--7-7--5--3/5--3--|-5---5--5/7--5--3--3/5\3-|-5---5--5-5-5\3--3--3/5\3-|

d|------------------------|--------------------------|--------------------------|
A|------------------------|--------------------------|--------------------------|
F|------------------------|--------------------------|--------------------------| (Play all twice)
C|-7---7--7-7--5--3/5--3--|-5---5--5/10--5--3--3/5\3-|-5---5--5-5-5\3--3--3/5\3-|
G|------------------------|--------------------------|--------------------------|
C|-7---7--7-7--5--3/5--3--|-5---5--5/10--5--3--3/5\3-|-5---5--5-5-5\3--3--3/5\3-|

d|-------------------------|----------|
A|-------------------------|----------|
F|-------------------------|----------|
C|-8--8--8--8--8--8--8--8--|-10-------|
G|-8--8--8--8--8--8--8--8--|-10-------|
C|-8--8--8--8--8--8--8--8--|-10-------|

Guitar 2
                                                         (Play phrase at least 4x)
d|---------------------------|----------------13-15--13-|-16p15p13h16p15p13------|
A|---------------------------|---------15~-15-----------|------------------------|
F|-17b--17b-r17b-17b--17b--r-|-17~--17------------------|------------------------|
C|---------------------------|--------------------------|------------------------|
G|---------------------------|--------------------------|------------------------|
C|---------------------------|--------------------------|------------------------|

d|--------------------------|--------------------------------------------------------------------|
A|--------------------------|--------------------------------------------------------------------|
F|-19~--19~--17--19--17-19--|-19p17-----17p14-----14p12-----12p10--------------------------------|
C|--------------------------|------19p17-----17p15-----15p12-----12p10-15p12-----12p10-----------|
G|--------------------------|-----------------------------------------------15p12-----12p10-15b--|
C|--------------------------|--------------------------------------------------------------------|

d|---------------------------------|---------------------------------------------------|
A|---------------------------------|---------------------------------------------------|
F|------10-----10------10--11-10\--|-------7h10h12p10-7h10h13p10-7h10h14p10-7h10h13p10-|
C|--12------12-----12--------------|---------------------------------------------------|
G|---------------------------------|---------------------------------------------------|
C|---------------------------------|---------------------------------------------------|

d|------------------------------------------------------------------------------------------|
A|----------------------------------------------8h10h13p10-8h10h15p10-8h10h13p10-8h10h15p10-|
F|-7h10h12p10-7h10h13p10-7h10h14p10-7h10h13p10----------------------------------------------|
C|------------------------------------------------------------------------------------------|
G|------------------------------------------------------------------------------------------|
C|------------------------------------------------------------------------------------------|

d|-8h10h13p10-8h10h15p10-10h13h15p13--13h15-13h16p13h17-13h16p13h17-13h16p13h17-13h16p13-------|
A|---------------------------------------------------------------------------------------15p14-|
F|---------------------------------------------------------------------------------------------|
C|---------------------------------------------------------------------------------------------|
G|---------------------------------------------------------------------------------------------|
C|---------------------------------------------------------------------------------------------|

d|------------------------|-----------------------|
A|-13--14--15-13--14--15--|--13-14-15-13--14--15--|
F|------------------------|-----------------------|
C|------------------------|-----------------------|
G|------------------------|-----------------------|
C|------------------------|-----------------------|

d|------17h20-17h20h22p20h22p20-17h20p17----------------17h20-17h20h22p20h22p20-17h20p17----------|
A|-18h20---------------------------------20p18h20--18h20---------------------------------20p18h20-|
F|------------------------------------------------------------------------------------------------|
C|------------------------------------------------------------------------------------------------|
G|------------------------------------------------------------------------------------------------|
C|------------------------------------------------------------------------------------------------|

d|-------------------------|----------|
A|-------------------------|----------|
F|-12-12-12-12-12-12-12-12-|-12-------|
C|-------------------------|----------|
G|-10-10-10-10-10-10-10-10-|-10-------|
C|-------------------------|----------|

We take our glasses


[Post-Solo] (5:13)

Guitar 1

d|------------------------|-------------------------|--------------------------|---------------------------|
A|------------------------|-------------------------|--------------------------|---------------------------|
F|------------------------|-------------------------|--------------------------|-----5/7-7-----------------|
C|-7---7--7-7--5--3/5--3--|-5---5--5/7--5--3--3/5\3-|-5---5--5-5-5\3--3--3/5\3-|---------------------------|
G|------------------------|-------------------------|--------------------------|-----3/5-5-----------------|
C|-7---7--7-7--5--3/5--3--|-5---5--5/7--5--3--3/5\3-|-5---5--5-5-5\3--3--3/5\3-|-0---------0--3--0---0-5-0-|

d|------------------------|--------------------------|--------------------------|---------------------------|
A|------------------------|--------------------------|--------------------------|---------------------------|
F|------------------------|--------------------------|--------------------------|-----5/7-7-----------------|
C|-7---7--7-7--5--3/5--3--|-5---5--5/10--5--3--3/5\3-|-5---5--5-5-5\3--3--3/5\3-|---------------------------|
G|------------------------|--------------------------|--------------------------|-----3/5-5-----------------|
C|-7---7--7-7--5--3/5--3--|-5---5--5/10--5--3--3/5\3-|-5---5--5-5-5\3--3--3/5\3-|-0---------0--3--0---0-5-3-|

d|------------------------|-------------------------|--------------------------|---------------------------|
A|------------------------|-------------------------|--------------------------|---------------------------|
F|------------------------|-------------------------|--------------------------|-----5/7-7-----------------|
C|-7---7--7-7--5--3/5--3--|-5---5--5/7--5--3--3/5\3-|-5---5--5-5-5\3--3--3/5\3-|---------------------------|
G|------------------------|-------------------------|--------------------------|-----3/5-5-----------------|
C|-7---7--7-7--5--3/5--3--|-5---5--5/7--5--3--3/5\3-|-5---5--5-5-5\3--3--3/5\3-|-0---------0--3--0---0-5-0-|

d|------------------------|--------------------------|--------------------------|
A|------------------------|--------------------------|--------------------------|
F|------------------------|--------------------------|--------------------------|
C|-7---7--7-7--5--3/5--3--|-5---5--5/10--5--3--3/5\3-|-5---5--5-5-5\3--3--3/5\3-|
G|------------------------|--------------------------|--------------------------|
C|-7---7--7-7--5--3/5--3--|-5---5--5/10--5--3--3/5\3-|-5---5--5-5-5\3--3--3/5\3-|

d|---------------------------------|----------|
A|---------------------------------|----------|
F|---------------------------------|----------|
C|---------------------------------|----------|
G|---------------------------------|----------|
C|-0-0-0-0-0-0-0-0-0-0-0-0-0-0-0-0-|-0--------|
PM |---------------------------------|

Guitar 2

d|---------------------------------|----------------------------|----------------------------------|
A|---------------------------------|----------------------------|----------------------------------|
F|---------------------------------|-12---12-----12--10--12\10--|-12--12--12--12-12-12-------------|
C|-----10/12-12-12--10-12----10/12-|----------------------------|----------------------3--3--3/5\3-|
G|---------------------------------|-10---10-----10--8---10\8---|-10--10--10--10-10-10-------------|
C|-0---10/12-12-12--10-12--0-10/12-|----------0-----------------|----------------------3--3--3/5\3-|

d|------------------------------|                      |------------------------------|
A|------------------------------|                      |------------------------------|
F|------------------------------| (1st + 3rd Ending)   |------------------------------| (2nd Ending)
C|-----10/12-12-----------------|                      |-----10/12-12-----------------|
G|------------------------------|                      |------------------------------|
C|-0---10/12-12-0--3--0---0-5-0-|                      |-0---10/12-12-0--3--0---0-5-3-|

d|---------------------------------|----------|
A|---------------------------------|----------|
F|---------------------------------|----------| (4th Ending)
C|---------------------------------|----------|
G|---------------------------------|----------|
C|-0-0-0-0-0-0-0-0-0-0-0-0-0-0-0-0-|-0--------|
PM |---------------------------------|

And we'll raise them to the ghost of youth
We taste with the tip of our tongues
And we'll rise until it fades away
Then we'll fall with the rising sun


[Outro] (5:52)

Guitars 1 + 2

d|----------------------|----------------------------|----------------------------|
A|----------------------|----------------------------|----------------------------|
F|-5---5---5--5---5--5--|-4--4--4--4-4-4-------------|----------------------------|
C|-5---5---5--5---5--5--|-5--5--5--5-5-5-3--3--3h5p3-|-0--0--3--0-0--0--3-3-0-3-0-|
G|-3---3---3--3---3--3--|-2--2--2--2-2-2-3--3--3h5p3-|-0--0--3--0-0--0--3-3-0-3-0-|
C|----------------------|----------------3--3--3h5p3-|-0--0--3--0-0--0--3-3-0-3-0-|

d|----------------------|----------------------|----------------------------|----------------------------|
A|----------------------|----------------------|----------------------------|----------------------------|
F|-7---7---7--7---7--7--|-5---5---5--5---5--5--|-4--4--4--4-4-4-------------|----------------------------| 2x
C|-7---7---7--7---7--7--|-5---5---5--5---5--5--|-5--5--5--5-5-5-3--3--3h5p3-|-0--0--3--0-0--0--3-3-0-3-0-|
G|-5---5---5--5---5--5--|-3---3---3--3---3--3--|-2--2--2--2-2-2-3--3--3h5p3-|-0--0--3--0-0--0--3-3-0-3-0-|
C|----------------------|----------------------|----------------3--3--3h5p3-|-0--0--3--0-0--0--3-3-0-3-0-|

d|----------------------|----------------------|----------------------------|----------|
A|----------------------|----------------------|----------------------------|----------|
F|-7---7---7--7---7--7--|-5---5---5--5---5--5--|-4--4--4--4-4-4-------------|----------|
C|-7---7---7--7---7--7--|-5---5---5--5---5--5--|-5--5--5--5-5-5-3--3--3h5p3-|-5--------|
G|-5---5---5--5---5--5--|-3---3---3--3---3--3--|-2--2--2--2-2-2-3--3--3h5p3-|-5--------|
C|----------------------|----------------------|----------------3--3--3h5p3-|-5--------|

We raise our glasses to the ghost of youth
We taste with the tip of our tongues
And we'll rise until it fades away
Then we'll fall with the rising sun



I'm fairly certain the solo is almost, if not entirely correct. Be sure to explore various finger positions
and methods of playing it (my preference is to tap the descending lick). As always, message me if you have
any corrections!

            
            
Suggest correction
Creating personal tab
Creating personal tab
You can edit any tab online and save it as your Personal.

You can edit, replace or remove any tab part or add personal notes – all changes will be seen only by you.

Personal tabs can be accessed anytime from any device, even offline.
Learn more »
Give kudos to tab author, rate the tab!
1 2 3 4 5
comments
print report bad tab
guest
You may want to rate the tab now too:
select rating
Wanna post a correction for this tab? Suggest correction