Oops, an error
Loading. Please wait.

Falling Down tab

58 views 1 this week
no commentswrite comment
1 2 3 4 5
3 more votes to show rating
add to favorites
×
Save as Personal and add changes to this tab that will be seen only by you. Learn more ›
×
You can save this tab as Personal to edit and correct it or add notes. All changes will be seen only by you. Learn more »
launch autoscroll
font size
0
reset
how to read this tab
guitar tuner
edit
Autoscroll
slow
fast
+/-
esc
set tempo
stop
Artist - Pregnant Whale Pain
Album - Pregnant Whale Pain
Song - Falling Down
Tabbed By - Basher89

All Guitars - D Standard (D G C F A d)

b - Bend
r - Release
br - Bend Release
brb - Bend Release Bend
PM - Palm Mute
/ - Slide Up
\ - Slide Down
h - Hammer On
p - Pull Off
~ - Vibrato
x - Mute
+ - Natural Harmonic
* - Artificial Harmonic


[Intro] (0:00)

Guitar 1

d|---------------------------------------------------------|
A|---------------------------------------------------------|
F|-14--14-14--14-14--------------------------14--14-14--14-| 4x
C|-14--14-15--16-14--14-14-14-14-14-14-14-14-14--14-15--16-|
G|-------------------16p14-16p14-16p14-16p14---------------|
D|---------------------------------------------------------|


[Verse] (0:15)

Guitar 1

d|---------------------------------------------------------|
A|---------------------------------------------------------|
F|-14--14-14--14-14--------------------------14--14-14--14-| 7x
C|-14--14-15--16-14--14-14-14-14-14-14-14-14-14--14-15--16-|
G|-------------------16p14-16p14-16p14-16p14---------------|
D|---------------------------------------------------------|

d|-------------------------------------------------------------|
A|-------------------------------------------------------------|
F|-14--14-14--14-14--------------------------14--14-14--14-14--|
C|-14--14-15--16-14--14-14-14-14-14-14-14-14-14--14-15--16-14--|
G|-------------------16p14-16p14-16p14-16p14-------------------|
D|-------------------------------------------------------------|

Guitar 2 (0:29)

d|-------17----------------------------------------------------------|
A|-16-17----17-16-17-16----16-------------------------------------15-|
F|----------------------17----17----17-------------------16-17-18----| 3x
C|-------------------------------19----19-18-15-14----17-------------|
G|-------------------------------------------------15----------------|
D|-------------------------------------------------------------------|

d|-------17----------------------------------------------------------------|
A|-16-17----17-16-17-16----16-------------------------------------15-16-17-|
F|----------------------17----17----17----------------------17-18----------|
C|-------------------------------19----19-18-15-14----17-17----------------|
G|-------------------------------------------------15----------------------|
D|-------------------------------------------------------------------------|

Stimulate all the senses that scare you away
In the end the fear that has never really gone away


[Pre-Chorus] (0:44)

Guitar 1

d|------------------------|---------------|------------------------|-----------------------|
A|------------------------|---------------|------------------------|---------8-------------|
F|-7b---7--5--7--5--5-----|---------------|-7b---7--5--7--5--5-----|---7h8h9----9--8--7\5~-|
C|----------------------7-|---5-7--7--5-7-|----------------------7-|-----------------------|
G|------------------------|---------------|------------------------|-----------------------|
D|------------------------|---------------|------------------------|-----------------------|

d|------------------------|---0--2----|-----------------------|----------------------8--|
A|------------------------|---1--3----|-----------------------|---------8-----8h9h10----|
F|-7b---7--5--7--5--5-----|-----------|-7b---7--5--7--7--5--5~|---7h8h9----9------------|
C|----------------------7-|-----------|-----------------------|-------------------------|
G|------------------------|-----------|-----------------------|-------------------------|
D|------------------------|-----------|-----------------------|-------------------------|

Guitar 2

d|-----------------------|---3-5--5--3-5-|-----------------------|-------|
A|-8b---8--5--8--5--5----|---------------|-8b---8--5--8--5--5----|-------|
F|---------------------5-|---------------|---------------------5-|-------|
C|-----------------------|---------------|-----------------------|-------|
G|-----------------------|---------------|-----------------------|-------|
D|-----------------------|---------------|-----------------------|-------|

d|-----------------------|------------|-----------------------|-------|
A|-10b--8--5--8--5--5----|---5--8b----|-8b---8--5--7b---5-----|-------|
F|---------------------5-|------------|-----------------------|-------|
C|-----------------------|------------|---------------------7-|-------|
G|-----------------------|------------|-----------------------|-------|
D|-----------------------|------------|-----------------------|-------|

Now it has blocked your door
Now I can't go in
I've seen its face before
Ugly and evil and
Pain all over your face
Shame that you can't escape
Sickness in your head


Guitar 1

d|-----------------------------|--------------------------------|
A|-----------------------------|--------------------------------|
F|-6--6--6-6-x-2--2--2-2-2-2-2-|-6--6--6--x-2--2-x-9---9--9--9--|
C|-7--7--7-7-x-3--3--3-3-3-3-3-|-7--7--7--x-3--3-x-10--10-10-10-|
G|-----------------------------|--------------------------------|
D|-----------------------------|--------------------------------|

d|---------------------------0-|------------|
A|---------------------------0-|------------|
F|-6--6--6-6-x-4--4-x-2--2-x-1-|------------|
C|-7--7--7-7-x-5--5-x-3--3-x-2-|-----/6-----|
G|-----------------------------|------------|
D|-----------------------------|------------|

Guitar 2

d|-5--5--5-5-x-------1-1-1-1-1-|--------------------------------|
A|-5--5--5-5-x-1--1--1-1-1-1-1-|-5--5--5--x-1--1-x-8---8--8--8--|
F|-6--6--6-6-x-2--2--2-2-2-2-2-|-6--6--6--x-2--2-x-9---9--9--9--|
C|-----------------------------|--------------------------------|
G|-----------------------------|--------------------------------|
D|-----------------------------|--------------------------------|

d|-5--5----------------------0-|-----------|
A|-5--5--5-5-x-3--3-x-1--1-x-0-|-----------|
F|-6--6--6-6-x-4--4-x-2--2-x-1-|-----------|
C|-----------------------------|----/6-----|
G|-----------------------------|-----------|
D|-----------------------------|-----------|

I see that you're feeling better today
It's all I want, but I don't dare to say
What did I climb for yesterday?


[Verse 2] (1:16)

Guitar 1

d|---------------------------------------------------------|
A|---------------------------------------------------------|
F|-14--14-14--14-14--------------------------14--14-14--14-| 7x
C|-14--14-15--16-14--14-14-14-14-14-14-14-14-14--14-15--16-|
G|-------------------16p14-16p14-16p14-16p14---------------|
D|---------------------------------------------------------|

d|------------------------------------------------------------|
A|------------------------------------------------------------|
F|-14--14-14--14-14--------------------------14--14-14--------|
C|-14--14-15--16-14--14-14-14-14-14-14-14-14-14--14-15--16b---|
G|-------------------16p14-16p14-16p14-16p14------------------|
D|------------------------------------------------------------|

Guitar 2 (0:29)

d|-------17----------------------------------------------------------|
A|-16-17----17-16-17-16----16-------------------------------------15-|
F|----------------------17----17----17-------------------16-17-18----| 3x
C|-------------------------------19----19-18-15-14----17-------------|
G|-------------------------------------------------15----------------|
D|-------------------------------------------------------------------|

d|-------17----------------------------------------------------------------|
A|-16-17----17-16-17-16----16-------------------------------------15-16-17-|
F|----------------------17----17----17-------------------16-17-18----------|
C|-------------------------------19----19-18-15-14----17-------------------|
G|-------------------------------------------------15----------------------|
D|-------------------------------------------------------------------------|

Fingertips, I asked and you said it hurts
Just a little bit, the worst fire is the one
That knows how to burn in you


[Pre-Chorus 2] (1:46)

Guitar 1

d|------------------------|---------------|------------------------|-----------------------|
A|------------------------|---------------|------------------------|---------8-------------|
F|-7b---7--5--7--5--5-----|---------------|-7b---7--5--7--5--5-----|---7h8h9----9--8--7\5~-|
C|----------------------7-|---5-7--7--5-7-|----------------------7-|-----------------------|
G|------------------------|---------------|------------------------|-----------------------|
D|------------------------|---------------|------------------------|-----------------------|

d|---------------------------0--2-------------------------------------------------8--|
A|---------------------------1--3------------------------------------8-----8h9h10----|
F|-7b---7--5--7--5--5-----------------7b---7--5--7--7--5--5~---7h8h9----9------------|
C|----------------------7------------------------------------------------------------|
G|-----------------------------------------------------------------------------------|
D|-----------------------------------------------------------------------------------|

Guitar 2

d|-----------------------|---3-5--5--3-5-|-----------------------|-------|
A|-8b---8--5--8--5--5----|---------------|-8b---8--5--8--5--5----|-------|
F|---------------------5-|---------------|---------------------5-|-------|
C|-----------------------|---------------|-----------------------|-------|
G|-----------------------|---------------|-----------------------|-------|
D|-----------------------|---------------|-----------------------|-------|

d|-----------------------|------------|----------------------|-------|
A|-10b--8--5--8--5--5----|---5--8b----|-8b---8--5--7b---7--5~|-------|
F|---------------------5-|------------|----------------------|-------|
C|-----------------------|------------|----------------------|-------|
G|-----------------------|------------|----------------------|-------|
D|-----------------------|------------|----------------------|-------|

Now it has blocked your door
Now I can't go in
I've seen its face before
Ugly and evil and
Pain all over your face
Shame that you can't escape
Sickness in your head


Guitar 1

d|-----------------------------|--------------------------------|
A|-----------------------------|--------------------------------|
F|-6--6--6-6-x-2--2--2-2-2-2-2-|-6--6--6--x-2--2-x-9---9--9--9--|
C|-7--7--7-7-x-3--3--3-3-3-3-3-|-7--7--7--x-3--3-x-10--10-10-10-|
G|-----------------------------|--------------------------------|
D|-----------------------------|--------------------------------|

d|---------------------------0-|---0--0--0--0--0--0--|
A|---------------------------0-|---0--0--0--0--0--0--|
F|-6--6--6-6-x-4--4-x-2--2-x-1-|---1--1--1--1--1--1--|
C|-7--7--7-7-x-5--5-x-3--3-x-2-|---------------------|
G|-----------------------------|---------------------|
D|-----------------------------|---------------------|

Guitar 2

d|-5--5--5-5-x-----------------|--------------------------------|
A|-5--5--5-5-x-1--1--1-1-1-1-1-|-5--5--5--x-1--1-x-8---8--8--8--|
F|-6--6--6-6-x-2--2--2-2-2-2-2-|-6--6--6--x-2--2-x-9---9--9--9--|
C|-----------------------------|--------------------------------|
G|-----------------------------|--------------------------------|
D|-----------------------------|--------------------------------|

d|---------------------------0-|---0--0--0--0--0--0--|
A|-5--5--5-5-x-3--3-x-1--1-x-0-|---0--0--0--0--0--0--|
F|-6--6--6-6-x-4--4-x-2--2-x-1-|---1--1--1--1--1--1--|
C|-----------------------------|---------------------|
G|-----------------------------|---------------------|
D|-----------------------------|---------------------|

I see that you're feeling better today
It's all I want, but I don't dare to say
What did I climb for yesterday?


[Chorus] (2:18)

Guitar 1

d|-----------------------|-------------------------------------|     |----------------------|
A|-----------------------|-------------------------------------|     |----------------------|
F|-6---6---6--6--6-6--6--|-11---11--11-11-11-11-x-12-x-9--9--x-| 3x  |-11-11-x-12-x-9--9--x-|
C|-7---7---7--7--7-7--7--|-12---12--12-12-12-12-x-13-x-10-10-x-|     |-12-12-x-13-x-10-10-x-|
G|-----------------------|-------------------------------------|     |----------------------|
D|-----------------------|-------------------------------------|     |----------------------|

d|-----------------------|----------------------------------------------------------|
A|-----------------------|----------------------------------------------------------|
F|-6---6---6--6--6-6--6--|-11---11--11-11-11-11-x-12-x-9--9--x-8--8--8--8--8--------|
C|-7---7---7--7--7-7--7--|-12---12--12-12-12-12-x-13-x-10-10-x-9--9--9--9--9--------|
G|-----------------------|----------------------------------------------------------|
D|-----------------------|----------------------------------------------------3--4--|

Guitar 2

d|-----------------5--x--|------10--10-10-10-10-x------------|
A|-5---5---5--5--5-5--x--|-10---10--10-10-10-10-x-11-x-8-8-x-|
F|-6---6---6--6--6-6-----|-11---11--11-11-11-11-x-12-x-9-9-x-|
C|-----------------------|-----------------------------------|
G|-----------------------|-----------------------------------|
D|-----------------------|-----------------------------------|

d|-----------------5--x--|----------------10-10-x------------|     |--------------------|
A|-5---5---5--5--5-5--x--|-10---10--10-10-10-10-x-11-x-8-8-x-|     |-10-10-x-11-x-8-8-x-|
F|-6---6---6--6--6-6-----|-11---11--11-11-11-11-x-12-x-9-9-x-| 2x  |-11-11-x-12-x-9-9-x-|
C|-----------------------|-----------------------------------|     |--------------------|
G|-----------------------|-----------------------------------|     |--------------------|
D|-----------------------|-----------------------------------|     |--------------------|

d|-----------------------|-------------10-10-----------------|-------------------------|
A|-5---5---5--5--5-5--x--|-10---10--10-10-10-10-x-11-x-8-8-x-|-7--7--7--7--7-----------|
F|-6---6---6--6--6-6--x--|-11---11--11-11-11-11-x-12-x-9-9-x-|-8--8--8--8--8-----------|
C|-----------------------|-----------------------------------|-------------------------|
G|-----------------------|-----------------------------------|-------------------------|
D|-----------------------|-----------------------------------|----------------3--4--0--|

If I'm falling down today


[Solo] (2:43)

Guitar 1

d|-----0------------|-----0------------|-----0------------|-----5--5-5-5--------7-|-7--7--7--7--7-----------|
A|-----0------------|-----0------------|-----0------------|-----5--5-5-5--------7-|-7--7--7--7--7-----------|
F|-----1------------|-----1------------|-----1------------|-----6--6-6-6--------8-|-8--8--8--8--8-----------|
C|-----2------------|-----2------------|-----2------------|-----7---------------9-|-9--9--9--9--9-----------|
G|-----2------------|-----2------------|-----2------------|-----7---------------9-|-9--9--9--9--9-----------|
D|--0--0----3--4--0-|--0--0----3--4--0-|--0--0----3--4--5-|--5--5---------5--6--7-|-7--7--7--7--7--3--4--0--|

d|-----0------------|-----0------------|-----0------------|-----5--5-5-5----------|-----0-------------|
A|-----0------------|-----0------------|-----0------------|-----5--5-5-5----------|-----0-------------|
F|-----1------------|-----1------------|-----1------------|-----6--6-6-6----------|-----1-------------|
C|-----2------------|-----2------------|-----2------------|-----7-----------------|-----2-------------|
G|-----2------------|-----2------------|-----2------------|-----7-----------------|-----2-------------|
D|--0--0----3--4--0-|--0--0----3--4--0-|--0--0----3--4--5-|--5--5---------3--4--0-|--0--0----3--4--0--|

d|-----0------------|-----0------------|--5--5--5--5--5--5--5--|-5------|
A|-----0------------|-----0------------|--5--5--5--5--5--5--5--|-5------|
F|-----1------------|-----1------------|--6--6--6--6--6--6--6--|-6------|
C|-----2------------|-----2------------|--7--7--7--7--7--7--7--|-7------|
G|-----2------------|-----2------------|--7--7--7--7--7--7--7--|-7------|
D|--0--0----3--4--0-|--0--0----3--4--5-|--5--5--5--5--5--5--5--|-5------|

Guitar 2

d|-------------|-----------|-----------|-----------|-----|-----------|-----------|-----------|--------------|
A|-----5/17~\--|---5/17~\--|---5/17~\--|---5/10~\--|-----|---5/17~\--|---5/17~\--|---5/17~\--|---5/10~\-----|
F|-------------|-----------|-----------|-----------|-----|-----------|-----------|-----------|--------------|
C|-------------|-----------|-----------|-----------|-----|-----------|-----------|-----------|--------------|
G|-------------|-----------|-----------|-----------|-----|-----------|-----------|-----------|--------------|
D|-------------|-----------|-----------|-----------|-----|-----------|-----------|-----------|--------------|

d|-----------|-----------|-----------|-----------|------|
A|---5/17~\--|---5/17~\--|---5/17~\--|---5/10~\--|------|
F|-----------|-----------|-----------|-----------|------|
C|-----------|-----------|-----------|-----------|------|
G|-----------|-----------|-----------|-----------|------|
D|-----------|-----------|-----------|-----------|------|

Solo "Guitar" (Vocals)

d|---------------|----------------------|-------------------|-----------------|-----------------------------|
A|------------15-|------------------/16-|--------17------17-|-----17p16b---17-|-15--15--17------------------|
F|-15brb--16-----|--16--16--16-14\------|-16\-14-----16-----|-16--------------|-------------16--14--14b-12--|
C|---------------|----------------------|-------------------|-----------------|-----------------------------|
G|---------------|----------------------|-------------------|-----------------|-----------------------------|
D|---------------|----------------------|-------------------|-----------------|-----------------------------|

d|-------------------|-------------------|-------17---------------|--------------------------------------|
A|-------------------|-------------19b---|--20-------19--17\15~---|--------------------------------------|
F|-9p7~--9---9/12-14-|-12-14b--12--------|------------------------|-14~--14--14h16--14h16p14p12--12h14---|
C|-------------------|-------------------|------------------------|--------------------------------------|
G|-------------------|-------------------|------------------------|--------------------------------------|
D|-------------------|-------------------|------------------------|--------------------------------------|

d|-------------------------|-----------------15b-----|-17b~----------------------|------------------------|
A|-------------------------|---------16--17------17--|--------15b----r15--17-----|------------------------|
F|-12h14p12----12--14--15b-|-15b---------------------|------------------------14-|-12---------------------|
C|-------------------------|-------------------------|---------------------------|------12----------------|
G|-------------------------|-------------------------|---------------------------|-----------15---/14b\---|
D|-------------------------|-------------------------|---------------------------|------------------------|


[Pre-Chorus] (3:21)

Guitar 1

d|-----------------------------|--------------------------------|
A|-----------------------------|--------------------------------|
F|-6--6--6-6-x-2--2--2-2-2-2-2-|-6--6--6--x-2--2-x-9---9--9--9--|
C|-7--7--7-7-x-3--3--3-3-3-3-3-|-7--7--7--x-3--3-x-10--10-10-10-|
G|-----------------------------|--------------------------------|
D|-----------------------------|--------------------------------|

d|---------------------------0-|---0--0--0-------------|-----0---|
A|---------------------------0-|---0--0--0-------------|-----0---|
F|-6--6--6-6-x-4--4-x-2--2-x-1-|---1--1--1-------------|-----1---|
C|-7--7--7-7-x-5--5-x-3--3-x-2-|-----------------------|-----2---|
G|---------------------------2-|-----------------------|-----2---|
D|---------------------------0-|------------0-0-3-0-0--|-0---0---|

Guitar 2

d|-------------------1-1-1-----|-----------------------------|
A|-5--5--5-5-x-1--1--1-1-1-1-1-|-5--5--5--x-1--1--x-8--8-8-8-|
F|-6--6--6-6-x-2--2--2-2-2-2-2-|-6--6--6--x-2--2--x-9--9-9-9-|
C|-----------------------------|-----------------------------|
G|-----------------------------|-----------------------------|
D|-----------------------------|-----------------------------|

d|---------------------------0-|---0--0--0-------------|-----0---|
A|-5--5--5-5-x-3--3-x-1--1-x-0-|---0--0--0-------------|-----0---|
F|-6--6--6-6-x-4--4-x-2--2-x-1-|---1--1--1-------------|-----1---|
C|---------------------------2-|-----------------------|-----2---|
G|---------------------------2-|-----------------------|-----2---|
D|---------------------------0-|------------0-0-3-0-0--|-0---0---|

I see that you're feeling better today
It's all I want, but I don't dare to say
What did I climb for yesterday?


[Chorus] (3:34)

Guitar 1

d|-----------------------|-------------------------------------|     
A|-----------------------|-------------------------------------|     
F|-6---6---6--6--6-6--6--|-11---11--11-11-11-11-x-12-x-9--9--x-| 2x  
C|-7---7---7--7--7-7--7--|-12---12--12-12-12-12-x-13-x-10-10-x-|     
G|-----------------------|-------------------------------------|     
D|-----------------------|-------------------------------------|     

d|-----------------------|-------------------------------------|----------------------|
A|-----------------------|-------------------------------------|----------------------|
F|-6---6---6--6--6-6--6--|-11---11--11-11-11-11-x-12-x-9--9--x-|-11-11-x-12-x-9--9--x-| 2x
C|-7---7---7--7--7-7--7--|-12---12--12-12-12-12-x-13-x-10-10-x-|-12-12-x-13-x-10-10-x-|
G|-----------------------|-------------------------------------|----------------------|
D|-----------------------|-------------------------------------|----------------------|

d|-----------------------|-------------------------------------|----------------------|
A|-----------------------|-------------------------------------|----------------------|
F|-6---6---6--6--6-6--6--|-11---11--11-11-11-11-x-12-x-9--9--x-|-8--8--8--8--8--------|
C|-7---7---7--7--7-7--7--|-12---12--12-12-12-12-x-13-x-10-10-x-|-9--9--9--9--9--------|
G|-----------------------|-------------------------------------|----------------------|
D|-----------------------|-------------------------------------|----------------3--4--|

Guitar 2

d|-----------------5--x--|------10--10-10-10-10-x------------|
A|-5---5---5--5--5-5--x--|-10---10--10-10-10-10-x-11-x-8-8-x-|
F|-6---6---6--6--6-6--x--|-11---11--11-11-11-11-x-12-x-9-9-x-| 2x
C|-----------------------|-----------------------------------|
G|-----------------------|-----------------------------------|
D|-----------------------|-----------------------------------|

d|-----------------------|----------------10----x------------|--------------------|
A|-5---5---5--5--5-5--x--|-10---10--10-10-10-10-x-11-x-8-8-x-|-10-10-x-11-x-8-8-x-|
F|-6---6---6--6--6-6--x--|-11---11--11-11-11-11-x-12-x-9-9-x-|-11-11-x-12-x-9-9-x-| 2x
C|-----------------------|-----------------------------------|--------------------|
G|-----------------------|-----------------------------------|--------------------|
D|-----------------------|-----------------------------------|--------------------|

d|-----------------------|-----------------------------------|----------------------|
A|-5---5---5--5--5-5--x--|-10---10--10-10-10-10-x-11-x-8-8-x-|-7--7--7--7--7--------|
F|-6---6---6--6--6-6--x--|-11---11--11-11-11-11-x-12-x-9-9-x-|-8--8--8--8--8--------|
C|-----------------------|-----------------------------------|----------------------|
G|-----------------------|-----------------------------------|----------------------|
D|-----------------------|-----------------------------------|----------------3--4--|

If I'm falling down today


[Outro] (4:06)

Guitars 1 + 2

d|--------0----|
A|--------0----|
F|--------1----|
C|--------2----|
G|--------2----|
D|-0---0--0----|


As always, message me if you have any revisions.

            
            
Suggest correction
Creating personal tab
Creating personal tab
You can edit any tab online and save it as your Personal.

You can edit, replace or remove any tab part or add personal notes – all changes will be seen only by you.

Personal tabs can be accessed anytime from any device, even offline.
Learn more »
Give kudos to tab author, rate the tab!
1 2 3 4 5
comments
print report bad tab
guest
You may want to rate the tab now too:
select rating
Wanna post a correction for this tab? Suggest correction