Oops, an error
Loading. Please wait.

Mythical Creature tab

version 1
version 1

Whole song

145 views 3 this week
2 commentsread comments
1 2 3 4 5
3 more votes to show rating
add to favorites
×
Save as Personal and add changes to this tab that will be seen only by you. Learn more ›
×
You can save this tab as Personal to edit and correct it or add notes. All changes will be seen only by you. Learn more »
launch autoscroll
font size
0
reset
how to read this tab
guitar tuner
edit
Autoscroll
slow
fast
+/-
esc
set tempo
stop
Artist - Pregnant Whale Pain
Album - Pregnant Whale Pain
Song - Mythical Creature
Tabbed by - Basher89

All Guitars - D Standard (D G C F A d)

BPM - 128

b  - Bend
PM - Palm Mute
/  - Slide Up
\  - Slide Down
t  - Tremolo Pick


For the intro, slide up and down the three high strings while doing pick scrapes over the pickups.

[Intro] (0:14)

Guitar 1

d|-----------------|---------------|-----------------|-----------------|----------------|---------------|
A|-----------------|---------------|-----------------|-----------------|----------------|---------------|
F|-----------------|---------------|-----------------|-----------------|----------------|---------------|
C|-----------------|---------------|-----------------|-----------------|----------------|---------------|
G|-7---------7-7-7-|-7---7-7---7---|-7---------7-7-7-|-7---7-7---7---7-|-7--7-------7---|-7--7-7---7----|
D|-----0-----6-6-6-|-5---6-5---4---|-----0-----6-6-6-|-5---6-5---4---5-|-6------0---6---|-5--6-5---4----|

d|-----------------|-------------------|
A|-----------------|-------------------|
F|-----------------|-------------------|
C|-----------------|-------------------|
G|-7---------7-7-7-|-7---7-7---7---7-7-|
D|-----0-----6-6-6-|-5---6-5---4---5-6-|

Guitar 2

d|------------------|--------------|------------------|-----------------|----------------|----------------|
A|------------------|--------------|------------------|-----------------|----------------|----------------|
F|---------10-10-10-|-9--10-9---8--|---------10-10-10-|-9--10-9---8---9-|-10---------10--|-9--10-9---8----|
C|---------8--8--8--|-7--8--7---6--|---------8--8--8--|-7--8--7---6---7-|-8----------8---|-7--8--7---6----|
G|-7----------------|--------------|-7----------------|-----------------|-----7----------|----------------|
D|-----0------------|--------------|-----0------------|-----------------|---------0------|----------------|

d|------------------|--------------------|
A|------------------|--------------------|
F|---------10-10-10-|-9--10-9---8---9-10-|
C|---------8--8--8--|-7--8--7---6---7-8--|
G|-7----------------|--------------------|
D|-----0------------|--------------------|

[Verse] (0:31)

Guitar 1

d|--------------|---------------|-----------------|-----------------|----------------|----------------|
A|--------------|---------------|-----------------|-----------------|----------------|----------------|
F|--------------|---------------|-----------------|-----------------|----------------|----------------|
C|--------------|---------------|-----------------|-----------------|----------------|----------------|
G|-7---------7--|-7--7-7---7----|-7---------7-7-7-|-7---7-7---7---7-|-7---7-------7--|-7--7-7---7-----|
D|-------0---6--|-5--6-5---4----|-----0-----6-6-6-|-5---6-5---4---5-|-6-------0---6--|-5--6-5---4-----|

d|-----------------|-------------------|
A|-----------------|-------------------|
F|-----------------|-------------------| (Play all 2x)
C|-----------------|-------------------|
G|-7---------7-7-7-|-7---7-7---7---7-7-|
D|-----0-----6-6-6-|-5---6-5---4---5-6-|

Guitar 2

d|------------|---------------|------------------|---------------|----------------|----------------|
A|------------|---------------|------------------|---------------|----------------|----------------|
F|---------10-|-9--10-9--8----|---------10-10-10-|-9--10-9--8--9-|-10----------10-|-9--10-9--8-----|
C|---------8--|-7--8--7--6----|---------8--8--8--|-7--8--7--6--7-|-8-----------8--|-7--8--7--6-----|
G|-7----------|---------------|-7----------------|---------------|-----7----------|----------------|
D|------0-----|---------------|-----0------------|---------------|---------0------|----------------|

d|------------------|------------------|
A|------------------|------------------|
F|---------10-10-10-|-9--10-9--8--9-10-| (Play all 2x)
C|---------8--8--8--|-7--8--7--6--7-8--|
G|-7----------------|------------------|
D|-----0------------|------------------|

(No woes) My mouth is a fine paintbrush
(So many holes) Painting on your retina
(Never lonely) Your life's an exhibition
(So many fall for me) I am our self-made vision


[Pre-Chorus] (1:01)

Guitar 1

d|---------|--------------|--------------|-----------|----------|-------------|--------------|
A|---------|--------------|--------------|-----------|----------|-------6-----|--------------|
F|---------|------7-7-7-6-|--5---3b---3~-|-----------|----------|-----7---7-6-|--5---3b---3--|
C|---------|-5------------|--------------|-----------|----------|-------------|--------------|
G|-7-------|-5------------|--------------|-5------4--|-----4----|-------------|--------------|
D|------0--|-3------------|--------------|-----3-----|--3-------|-3-----------|--------------|

d|-----------|---------|------------|---------------|
A|-----------|---------|------------|---------------|
F|-----------|---------|------------|---------------|
C|-----------|---------|------------|---------------|
G|-5------4--|-----4---|------------|---------------|
D|-----3-----|--3------|-3---3--3-3-|-0-3--0--0-3---|

Guitar 2

d|---------|--------------|--------------|-----------|----------|-------5-----|--------------|
A|---------|------6-6-6-5-|--4----3~--3~-|-----------|----------|-----6---6-5-|--4---3~---3~-|
F|---------|--------------|--------------|-----------|----------|-------------|--------------|
C|---------|-5------------|--------------|-4------3--|-----3----|-------------|--------------|
G|-7-------|-5------------|--------------|-----2-----|--2-------|-5-----------|--------------|
D|------0--|-3------------|--------------|-----------|----------|-------------|--------------|

d|-----------|---------|------------|---------------|
A|-----------|---------|------------|---------------|
F|-----------|---------|------------|---------------|
C|-4------3--|-----3---|------------|---------------|
G|-----2-----|--2------|-5---5--5-5-|-2-5--2--2-5---|
D|-----------|---------|------------|---------------|

Take a look
This is me, so mysterious
Hiding my face, so you never find out that I don't exist


Guitar 1 (1:22)

d|---|
A|---|
F|---| Play eighth notes in the background, with intermittent pauses (listen to song)
C|-2-|
G|-2-| (On second time, play the un-muted chord in place of the pauses)
D|-0-|
PM -

d|-------|-----------|---------|
A|-------|-----------|---------|
F|-------|-----------|---------| (Play all 2x)
C|-2-2-2-|-----------|---------|
G|-2-2-2-|-----------|---------|
D|-0-0-0-|-6b--0--5--|--0--5---|
PM |---|

Guitar 2 (1:22)

d|---------------3-----4---|
A|-----4---5---------------|
F|-------------------------| 3x
C|-------------------------|
G|-------------------------|
D|-0-0---0---0-0---0-0---0-|
PM |-|   -   |-|   |-|   -

d|------|-----------|---------|
A|------|-10b-------|---------|
F|------|-------7b--|-----7b--| (Play all 2x)
C|------|-----9-----|--9------|
G|------|-----------|---------|
D|-0-0-0|-----------|---------|
PM |---|

Keep making up myself (painting, framing, nailing)


[Chorus] (1:49)

Guitars 1 + 2

d|---------|--------|-------|-------|---------|--------|-------|-------|
A|---------|--------|-------|-------|---------|--------|-------|-------|
F|---------|--------|-------|-------|---------|--------|-------|-------|
C|---------|------7-|-------|-------|---------|--------|-------|-------|
G|-2---2---|-2----7-|-------|-------|-2---2---|-2----2-|-------|-------|
D|-0---3---|-2----5-|-------|-------|-0---3---|-2----2-|-------|-------|

d|---------|--------|-------|-------|---------|--------|------------|
A|---------|--------|-------|-------|---------|--------|------------|
F|---------|--------|-------|-------|---------|--------|------------|
C|---------|------5-|--7----|-------|---------|--------|------------|
G|-2---2---|-2----5-|--7----|-------|-2---2---|-2------|-2--2--5\-2-|
D|-0---3---|-2----3-|--5----|-------|-0---3---|-2------|-0--0--7\-0-|
PM                                                       |--|     -

This frame won't keep me from getting off the wall
My nose will poke your cheek, and together we will fall


[Verse 2] (2:16)

Guitar 1

d|-----------------|---------------|-----------------|-----------------|----------------|---------------|
A|-----------------|---------------|-----------------|-----------------|----------------|---------------|
F|-----------------|---------------|-----------------|-----------------|----------------|---------------|
C|-----------------|---------------|-----------------|-----------------|----------------|---------------|
G|-7---------7-7-7-|-7---7-7---7---|-7---------7-7-7-|-7---7-7---7---7-|-7--7-------7---|-7--7-7---7----|
D|-----0-----6-6-6-|-5---6-5---4---|-----0-----6-6-6-|-5---6-5---4---5-|-6------0---6---|-5--6-5---4----|

d|-----------------|-------------------|
A|-----------------|-------------------|
F|-----------------|-------------------|
C|-----------------|-------------------|
G|-7---------7-7-7-|-7---7-7---7---7-7-|
D|-----0-----6-6-6-|-5---6-5---4---5-6-|

Guitar 2

d|------------------|--------------|------------------|-----------------|----------------|----------------|
A|------------------|--------------|------------------|-----------------|----------------|----------------|
F|---------10-10-10-|-9--10-9---8--|---------10-10-10-|-9--10-9---8---9-|-10---------10--|-9--10-9---8----|
C|---------8--8--8--|-7--8--7---6--|---------8--8--8--|-7--8--7---6---7-|-8----------8---|-7--8--7---6----|
G|-7----------------|--------------|-7----------------|-----------------|-----7----------|----------------|
D|-----0------------|--------------|-----0------------|-----------------|---------0------|----------------|

d|------------------|--------------------|
A|------------------|--------------------|
F|---------10-10-10-|-9--10-9---8---9-10-|
C|---------8--8--8--|-7--8--7---6---7-8--|
G|-7----------------|--------------------|
D|-----0------------|--------------------|

Guitar 1 (2:32)

d|--------------|---------------|-----------------|-----------------|----------------|----------------|
A|--------------|---------------|-----------------|-----------------|----------------|----------------|
F|--------------|---------------|-----------------|-----------------|----------------|----------------|
C|--------------|---------------|-----------------|-----------------|----------------|----------------|
G|-7---------7--|-7--7-7---7----|-7---------7-7-7-|-7---7-7---7---7-|-7---7-------7--|-7--7-7---7-----|
D|-------0---6--|-5--6-5---4----|-----0-----6-6-6-|-5---6-5---4---5-|-6-------0---6--|-5--6-5---4-----|

d|-----------------|-------------------|
A|-----------------|-------------------|
F|-----------------|-------------------|
C|-----------------|-------------------|
G|-7---------7-7-7-|-7---7-7---7---7-7-|
D|-----0-----6-6-6-|-5---6-5---4---5-6-|

Guitar 2 (2:32)

d|------------|---------------|------------------|---------------|----------------|----------------|
A|------------|---------------|------------------|---------------|----------------|----------------|
F|---------10-|-9--10-9--8----|---------10-10-10-|-9--10-9--8--9-|-10----------10-|-9--10-9--8-----|
C|---------8--|-7--8--7--6----|---------8--8--8--|-7--8--7--6--7-|-8-----------8--|-7--8--7--6-----|
G|-7----------|---------------|-7----------------|---------------|-----7----------|----------------|
D|------0-----|---------------|-----0------------|---------------|---------0------|----------------|

d|------------------|------------------|
A|------------------|------------------|
F|---------10-10-10-|-9--10-9--8--9-10-|
C|---------8--8--8--|-7--8--7--6--7-8--|
G|-7----------------|------------------|
D|-----0------------|------------------|

(So strong) Building a path for myself
(Never wrong) Portal on your nightstand
(Here I come)


[Pre-Chorus] (1:01)

Guitar 1

d|---------|--------------|--------------|-----------|----------|-------------|-----------------|
A|---------|--------------|--------------|-----------|----------|-------6-----|-----------------|
F|---------|------7-7-7-6-|--5---3b---3~-|-----------|----------|-----7---7-6-|--5---3h5p3~--3--|
C|------2--|-5------------|--------------|-----------|----------|-5-----------|-----------------|
G|-7----2--|-5------------|--------------|-5------4--|-----4----|-5-----------|-----------------|
D|------0--|-3------------|--------------|-----3-----|--3-------|-3-----------|-----------------|

d|-----------|---------|------------|---------------|
A|-----------|---------|------------|---------------|
F|-----------|---------|------------|---------------|
C|-----------|---------|------------|---------------|
G|-5------4--|-----4---|------------|---------------|
D|-----3-----|--3------|-3---3--3-3-|-0-3--0--0-3---|

Guitar 2

d|---------|--------------|--------------|-----------|----------|-------5-----|--------------|
A|---------|------6-6-6-5-|--4----3~--3~-|-----------|----------|-----6---6-5-|--4---3~---3~-|
F|---------|--------------|--------------|-----------|----------|-------------|--------------|
C|------2--|-5------------|--------------|-4------3--|-----3----|-5-----------|--------------|
G|-7----2--|-5------------|--------------|-----2-----|--2-------|-5-----------|--------------|
D|------0--|-3------------|--------------|-----------|----------|-3-----------|--------------|

d|-----------|---------|------------|---------------|
A|-----------|---------|------------|---------------|
F|-----------|---------|------------|---------------|
C|-4------3--|-----3---|------------|---------------|
G|-----2-----|--2------|-5---5--5-5-|-2-5--2--2-5---|
D|-----------|---------|------------|---------------|

Take a look
This is me, so mysterious
Hiding my face, so you never find out that I don't exist


Guitar 1 (1:22)

d|---|
A|---|
F|---| Play eighth notes in the background, with intermittent pauses (listen to song)
C|-2-|
G|-2-| (On second time, play the un-muted chord in place of the pauses)
D|-0-|
PM -

d|-------|-----------|---------|
A|-------|-----------|---------|
F|-------|-----------|---------| (Play all 2x)
C|-2-2-2-|-----------|---------|
G|-2-2-2-|-----------|---------|
D|-0-0-0-|-6b--0--5--|--0--5---|
PM |---|

Guitar 2 (1:22)

d|---------------3-----4---|
A|-----4---5---------------|
F|-------------------------| 3x
C|-------------------------|
G|-------------------------|
D|-0-0---0---0-0---0-0---0-|
PM |-|   -   |-|   |-|   -

d|------|-----------|---------|
A|------|-10b-------|---------|
F|------|-------7b--|-----7b--| (Play all 2x)
C|------|-----9-----|--9------|
G|------|-----------|---------|
D|-0-0-0|-----------|---------|
PM |---|

Keep making up myself (painting, framing, nailing)


[Chorus] (1:49)

Guitars 1 + 2

d|---------|--------|-------|-------|---------|--------|-------|-------|
A|---------|--------|-------|-------|---------|--------|-------|-------|
F|---------|--------|-------|-------|---------|--------|-------|-------|
C|---------|------7-|-------|-------|---------|--------|-------|-------|
G|-2---2---|-2----7-|-------|-------|-2---2---|-2----2-|-------|-------|
D|-0---3---|-2----5-|-------|-------|-0---3---|-2----2-|-------|-------|

d|---------|--------|-------|-------|---------|--------|------------|
A|---------|--------|-------|-------|---------|--------|------------|
F|---------|--------|-------|-------|---------|--------|------------|
C|---------|------5-|--7----|-------|---------|--------|------------|
G|-2---2---|-2----5-|--7----|-------|-2---2---|-2------|-2--2--5\-2-|
D|-0---3---|-2----3-|--5----|-------|-0---3---|-2------|-0--0--7\-0-|
PM                                                       |--|     -

This frame won't keep me from getting off the wall
My nose will poke your cheek, and together we will fall


[Breakdown] (4:00)

Guitars 1 + 2

d|-------------|----------|
A|-------------|----------|
F|-------------|----------|
C|-------------|----------|
G|-2--5--5\-2--|-2--2--5--|
D|-0--7--7\-0--|-0--0--7--|
PM -        |-------|     

Guitar 1

d|-------------|--------------|-------------|-------------|--------------|-------------|
A|-------------|--------------|-------------|-------------|--------------|-------------|
F|-------------|--------------|-------------|-------------|--------------|-------------| 5x
C|-------------|--------------|-------------|-------------|--------------|-------------|
G|-5\-2--2--5\-|-2--2--5-7-5\-|-2--2--2--5--|-5\-2--2--5\-|-2--2--5-7-5\-|-2--2--2--5--|
D|-7\-0--0--7\-|-0--0------7\-|-0--0--0--7--|-7\-0--0--7\-|-0--0------7\-|-0--0--0--7--|
PM    |--|       |--|           |-----|          |--|       |--|           |-----|

Guitar 2

d|-------------|--------------|-------------|-------------|--------------|-------------|
A|-------------|--------------|-------------|-------------|--------------|-------------|
F|-------------|--------------|-------------|-------------|--------------|-------------| 5x
C|-------------|-------4-5----|-------------|-------------|--------------|-------------|
G|-5\-------5\-|-----------5\-|----------5--|-5\-------5\-|-------5-7-5\-|----------5--|
D|-7\-0--0--7\-|-0--0---------|-0--0--0--7--|-7\-0--0--7\-|-0--0------7\-|-0--0--0--7--|
PM    |--|       |--|           |-----|          |--|       |--|           |-----|

Or you can play the "solo" from the intro on the third time (4:27)
Play the riff again the fifth time


Guitar 1 (5:01)

d|-------------|--------------|-------------|
A|-------------|--------------|-------------|
F|-------------|--------------|-------------| 2x
C|-------------|--------------|-------------|
G|-2--2--2--5\-|-2--2--5-7-5\-|-2--2--2--5\-|
D|-0--0--0--7\-|-0--0------7\-|-0--0--0--7\-|
PM |-----|       |--|           |-----|

d|-----|
A|-----|
F|-----| (Played twice, let ring out)
C|-----|
G|-2---|
D|-0---|
Two guitars play this chord; one is palm muted, the other isn't

Guitar 2 (clean tone)

d|------------|-----------|-----------|
A|------------|-----------|-----------|
F|-----0---1--|-----------|-----------| 2x
C|------------|-----------|-----------|
G|-2----------|-----------|-----------|
D|------------|-----------|-----------|

d|------------|-----------|-----------|------------|------------|----------|
A|------------|-----------|-----------|------------|------------|----------|
F|-----0---1--|-----------|-----------|-----0---1--|------------|----------|
C|------------|--2--------|-----------|------------|---2--------|----------|
G|-2----------|--------2--|-----------|-2----------|---------2--|----------|
D|------------|-----------|-----------|------------|------------|---5---4--|

Guitar 1

d|-----------|----------------|
A|-----------|----------------|
F|-----------|----------------|
C|-5---------|----------------|
G|-5---------|------------2-5-|
D|-3---------|-3-4-5-3~-0-----|

Guitar 2

d|-----------|----------------|
A|-----------|----------------|
F|-----------|----------------|
C|-----------|----------------|
G|-----------|-5-6-7-5~-------|
D|-3---------|----------------|

I materialize


[Outro] (5:28)

Guitar 1

d|-----------------|----------------|----------------|----------------|
A|-----------------|----------------|----------------|----------------|
F|-----------------|----------------|----------------|----------------| 6x
C|-7---7---7---7-9-|-10--9-7-7---7--|-5---5---5---5--|-6---6---6---6--|
G|-7---7---7---7-9-|-10--9-7-7---7--|-5---5---5---5--|-7---7---7---7--|
D|-5---5---5---5-7-|-8---7-5-5---5--|-3---3---3---3--|-4---4---4---4--|
PM |---------------------------------------------------------------|
(Palm mute first four times, play un-muted last two times)

Guitar 2 (still clean)

d|---------------|----------0-----|---------------|---------------|
A|-------------0-|-1--------------|---------------|---------------|
F|-2-----2---0---|---0---2------2-|-0-------------|-1-------------| 6x
C|-----2---2-----|-----2------2---|---2---2-2--2--|---2---2-2--2--|
G|---------------|----------------|---------------|---------------|
D|---------------|----------------|---------------|---------------|

On the fifth time (entrance is at 6:05), a distorted third guitar comes in

Guitar 3

d|---------------|----------------|---------------|---------------|
A|---------------|----------------|---------------|---------------|
F|---------------|----------------|---------------|---------------|
C|---------------|----------------|---------------|---5t-6t-------|
G|---------------|----------------|---------------|---------------|
D|---------------|----------------|---------------|---------------|

d|---------------|----------0-----|---------------|---------------|
A|-------------0-|-1--------------|---------------|---------------|
F|-2-----2---0---|---0---2------2-|-0-----0-0--0--|-1-----1-1--1--|
C|-----2---2-----|-----2------2---|---2---2-2--2--|---2---2-2--2--|
G|---------------|----------------|---------------|---------------|
D|---------------|----------------|---------------|---------------|

Guitar 1

d|-------|
A|-------|
F|-------| (Let ring out)
C|-2-----|
G|-2-----|
D|-0-----|

Guitars 2 + 3

d|-------|
A|-------|
F|-------| (Let ring out)
C|-6~----|
G|-------|
D|-------|

My voice, my smell, the way I feel
Everything has changed
My master plan has been fulfilled
For its name, my name has stayed the same


Please message me before rating if you have any revisions. Hope this tab helps those of you who ARE interested
in this up-and-coming band. :)

            
            
Suggest correction
Creating personal tab
Creating personal tab
You can edit any tab online and save it as your Personal.

You can edit, replace or remove any tab part or add personal notes – all changes will be seen only by you.

Personal tabs can be accessed anytime from any device, even offline.
Learn more »
Give kudos to tab author, rate the tab!
1 2 3 4 5
comments
print report bad tab
2 comments total.
0 reply
ColePennock 10 Feb 27, 2016 01:19 PM

I know I ask a lot but I NEED the chords and tabs to the acoustic version of Mythical Creature. It's so beautiful. I've gotten close on my own but you know more about this shit than me haha

guest
You may want to rate the tab now too:
select rating
Wanna post a correction for this tab? Suggest correction