Oops, an error
Loading. Please wait.

Paperplanes tab

136 views 1 this week
no commentswrite comment
1 2 3 4 5
2 more votes to show rating
add to favorites
×
Save as Personal and add changes to this tab that will be seen only by you. Learn more ›
×
You can save this tab as Personal to edit and correct it or add notes. All changes will be seen only by you. Learn more »
launch autoscroll
font size
0
reset
how to read this tab
guitar tuner
edit
Autoscroll
slow
fast
+/-
esc
set tempo
stop
Artist - Pregnant Whale Pain
Album - Pregnant Whale Pain
Song - Paperplanes
Tabbed by - Basher89

All Guitars - Drop C (C G C F A d)
              *Tune all strings slightly sharp*

BPM - 120

b - Bend
r - Release
. - Palm Mute
/ - Slide Up
\ - Slide Down
t - Tremolo Pick
h - Hammer On
p - Pull Off
~ - Vibrato
x - Mute
() - Natural Harmonic
*  - Artificial Harmonic
=  - Hold Bend


[Intro] (0:00)

Guitar 1

d|---------------------------|--------------|
A|---------------------------|--------------|
F|-----9/10--9---7--9h10p9p7-|--------------|
C|---------------------------|--------------|
G|---------------------------|--------------|
C|-0-------------------------|-0---6-8------|

d|---------------------------|-----------------------------|
A|---------------------------|-----------------------------|
F|-----9/10--9---7--9h10p9p7-|-----------------------------|
C|---------------------------|-----------------------------|
G|---------------------------|--------------------------3b-|
D|-0-------------------------|-0---6-8----8\-5--5-3-5-3----|
PM                                                |---|

Guitar 2 (0:04)

d|----12/13--12---10-12h13p12p10-|-----------------------------|
A|-------------------------------|--------------------------6b-|
F|-------------------------------|-----------------------------|
C|-------------------------------|-----------------------------|
G|-------------------------------|-----------------------------|
C|-0-----------------------------|-0---6-8----8\-5--5-3-5-3----|
PM                                                    |---|


[Verse] (0:11)

Guitar 1

d|--------------------------|--------------|
A|--------------------------|--------------|
F|------10--9---7--9h10p9p7-|--------------| 2x
C|-0------------------------|-0---6-8---8--|
G|-0------------------------|-0---6-8---8--|
C|-0------------------------|-0---6-8---8--|

d|--------------------------|---------------|---------------|
A|--------------------------|---------------|---------------|
F|------10--9---7--9h10p9p7-|---------------|---------------|
C|-0------------------------|-0---6-8----8\-|-5--5-3-5-3----|
G|-0------------------------|-0---6-8----8\-|-5--5-3-5-3-3b-|
C|-0------------------------|-0---6-8----8\-|-5--5-3-5-3----|
PM                                                 |---|

d|--------------------------|--------------|
A|--------------------------|--------------|
F|------10--9---7--9h10p9p7-|--------------| 2x
C|-0------------------------|-0---6-8---8--|
G|-0------------------------|-0---6-8---8--|
C|-0------------------------|-0---6-8---8--|

d|--------------------------|---------------|--------------|
A|--------------------------|---------------|--------------|
F|------10--9---7--9h10p9p7-|---------------|--------------|
C|-0------------------------|-0---6-8----8\-|-5--5-3-5-6-7-|
G|-0------------------------|-0---6-8----8\-|-5--5-3-5-6-7-|
D|-0------------------------|-0---6-8----8\-|-5--5-3-5-6-7-|
PM                                                 |-----|

d|-----------|---------------|
A|-----------|-13------------|
F|-----------|-12------------|
C|-8---------|-10------------|
G|-8---------|-10------------|
C|-8---------|-10------------|


Guitar 2

d|------13-12--10-12h13p12p10-|--------------|
A|----------------------------|--------------|
F|----------------------------|--------------|
C|----------------------------|--------------|
G|----------------------------|--------------|
C|-0--------------------------|-0---6-8---8--|

d|----------------------------|--------------|
A|------13-12--10-12h13p12p10-|--------------|
F|----------------------------|--------------|
C|----------------------------|--------------|
G|----------------------------|--------------|
C|-0--------------------------|-0---6-8---8--|

d|----------------------------|---------------|---------------|
A|----------------------------|---------------|------------6b-|
F|------13-12--10-12h13p12p10-|---------------|---------------|
C|----------------------------|---------------|---------------|
G|----------------------------|---------------|---------------|
C|-0--------------------------|-0---6-8----8\-|-5--5-3-5-3----|
PM                                                   |---|

d|------13-12--10-12h13p12p10-|--------------|
A|----------------------------|--------------|
F|----------------------------|--------------|
C|----------------------------|--------------|
G|----------------------------|--------------|
C|-0--------------------------|-0---6-8---8--|

d|----------------------------|--------------|
A|------13-12--10-12h13p12p10-|--------------|
F|----------------------------|--------------|
C|----------------------------|--------------|
G|----------------------------|--------------|
C|-0--------------------------|-0---6-8---8--|

d|----------------------------|---------------|--------------|
A|----------------------------|---------------|--------------|
F|------13-12--10-12h13p12p10-|---------------|--------------|
C|----------------------------|---------------|--------------|
G|----------------------------|---------------|--------------|
C|-0--------------------------|-0---6-8----8\-|-5--5-3-5-6-7-|
PM                                                   |-----|

d|----------------|------------|
A|----------------|------------|
F|----------------|------------|
C|----------------|------------|
G|-8---8-6-8--8---|-7-\5-------|
C|----------------|------------|

Sweat drops on our foreheads
On every door
Our eyes looking
For her thick fat fingers
Playfully dance
Around our sweet
Precious, beautiful fears


Guitar 1 (0:47)

d|--------------------------|--------------|
A|--------------------------|--------------|
F|------10--9---7--9h10p9p7-|--------------| 2x
C|-0------------------------|-0---6-8---8--|
G|-0------------------------|-0---6-8---8--|
C|-0------------------------|-0---6-8---8--|

d|--------------------------|---------------|-----------------|-----------------|
A|--------------------------|---------------|-----------------|-----------------|
F|------10--9---7--9h10p9p7-|---------------|-----------------|-----------------|
C|-0------------------------|-0---6-8----8\-|-5--5-3-5-3----5-|--5-5-3-5-3------|
G|-0------------------------|-0---6-8----8\-|-5--5-3-5-3-3b-5-|--5-5-3-5-3-3b---|
C|-0------------------------|-0---6-8----8\-|-5--5-3-5-3----5-|--5-5-3-5-3----5-|
PM                                                 |---|             |---|
                                                      *Massive slowdown here*

Guitar 2 (0:47)

d|------13-12--10-12h13p12p10-|--------------|
A|----------------------------|--------------|
F|----------------------------|--------------|
C|----------------------------|--------------|
G|----------------------------|--------------|
C|-0--------------------------|-0---6-8---8--|

d|----------------------------|--------------|
A|------13-12--10-12h13p12p10-|--------------|
F|----------------------------|--------------|
C|----------------------------|--------------|
G|----------------------------|--------------|
C|-0--------------------------|-0---6-8---8--|

d|----------------------------|---------------|-----------------|-----------------|
A|----------------------------|---------------|-----------------|-----------------|
F|------13-12--10-12h13p12p10-|---------------|-----------------|-----------------|
C|----------------------------|---------------|-----------------|-----------------|
G|----------------------------|---------------|------------3b---|------------3b---|
C|-0--------------------------|-0---6-8----8\-|-5--5-3-5-3----5-|--5-5-3-5-3----5-|
PM                                                   |---|             |---|
                                                      *Massive slowdown here*

She eats so hungry
And in exchange
We'll sit folding


[Chorus] (1:05)

Guitars 1 + 2

d|-----------------------|----------------------|
A|-----------------------|----------------------|
F|-----------------------|----------------------| 4x
C|-3--0------------------|--3--0----------------|
G|-3--0---------4--------|--3--0---10--8--4-----|
C|-3--0---0--3-----0--3--|--3--0-------------4--|
PM                          |--|

Our paper planes
Our paper planes
Our paper planes


[Post-Chorus] (1:31)

Guitar 1

d|-----------------------|----------------------|
A|-----------------------|----------------------|
F|-----------------------|----------------------|
C|-3--0------------------|--3--0----------------|
G|-3--0---------4--------|--3--0---10--8--4-----|
C|-3--0---0--3-----0--3--|--3--0-------------4--|
PM                          |--|

d|-----------------------|-----------|
A|-----------------------|-----------|
F|-----------------------|-----------|
C|-3--0------------------|--3--4--6--|
G|-3--0---------4--------|--3--4--6--|
C|-3--0---0--3-----0--3--|--3--4--6--|
PM                          |-----|

d|-----------|-----------|
A|-----------|-----------|
F|-----------|-----------|
C|-8---------|-10--------|
G|-8---------|-10--------|
C|-8---------|-10--------|

Guitar 2
                   *Let ring out*
d|--------------------10-|---------------------|
A|-----------------10----|---------------------|
F|-10--------------------|---------------------|
C|-12--------------------|---------------------|
G|-----------------------|---------------------|
C|-----------------------|---------------------|

d|--------------------------------|---------------|
A|--------------------------------|---------------|
F|--------------------------------|---------------|
C|--------------------------------|---------------|
G|-----8p6-8p6-8p6-8--8p6-8p6-8p6-|-7--5--5~------|
C|-6-8----------------------------|---------------|

And then we throw them all away
And then start shunning again


[Verse 2] (1:53)

Guitar 1

d|--------------------------|--------------|
A|--------------------------|--------------|
F|------10--9---7--9h10p9p7-|--------------| 2x
C|-0------------------------|-0---6-8---8--|
G|-0------------------------|-0---6-8---8--|
C|-0------------------------|-0---6-8---8--|

d|--------------------------|---------------|---------------|
A|--------------------------|---------------|---------------|
F|------10--9---7--9h10p9p7-|---------------|---------------|
C|-0------------------------|-0---6-8----8\-|-5--5-3-5-3----|
G|-0------------------------|-0---6-8----8\-|-5--5-3-5-3-3b-|
C|-0------------------------|-0---6-8----8\-|-5--5-3-5-3----|
PM                                                 |---|

d|--------------------------|--------------|
A|--------------------------|--------------|
F|------10--9---7--9h10p9p7-|--------------| 2x
C|-0------------------------|-0---6-8---8--|
G|-0------------------------|-0---6-8---8--|
C|-0------------------------|-0---6-8---8--|

d|--------------------------|---------------|-----------------|-----------------|
A|--------------------------|---------------|-----------------|-----------------|
F|------10--9---7--9h10p9p7-|---------------|-----------------|-----------------|
C|-0------------------------|-0---6-8----8\-|-5--5-3-5-3----5-|--5-5-3-5-3------|
G|-0------------------------|-0---6-8----8\-|-5--5-3-5-3-3b-5-|--5-5-3-5-3-3b---|
C|-0------------------------|-0---6-8----8\-|-5--5-3-5-3----5-|--5-5-3-5-3----5-|
PM                                                 |---|             |---|
                                                      *Massive slowdown here*

Guitar 2

d|------13-12--10-12h13p12p10-|--------------|
A|----------------------------|--------------|
F|----------------------------|--------------|
C|----------------------------|--------------|
G|----------------------------|--------------|
C|-0--------------------------|-0---6-8---8--|

d|----------------------------|--------------|
A|------13-12--10-12h13p12p10-|--------------|
F|----------------------------|--------------|
C|----------------------------|--------------|
G|----------------------------|--------------|
C|-0--------------------------|-0---6-8---8--|

d|----------------------------|-----------------------------|
A|----------------------------|--------------------------6b-|
F|------13-12--10-12h13p12p10-|-----------------------------|
C|----------------------------|-----------------------------|
G|----------------------------|-----------------------------|
C|-0--------------------------|-0---6-8----8\-5--5-3-5-3----|
                                                   |---|

d|------13-12--10-12h13p12p10-|--------------|
A|----------------------------|--------------|
F|----------------------------|--------------|
C|----------------------------|--------------|
G|----------------------------|--------------|
C|-0--------------------------|-0---6-8---8--|

d|----------------------------|--------------|
A|------13-12--10-12h13p12p10-|--------------|
F|----------------------------|--------------|
C|----------------------------|--------------|
G|----------------------------|--------------|
C|-0--------------------------|-0---6-8---8--|

d|----------------------------|-------------------------------|-----------------|
A|----------------------------|-------------------------------|-----------------|
F|------13-12--10-12h13p12p10-|-------------------------------|-----------------|
C|----------------------------|-------------------------------|-----------------|
G|----------------------------|--------------------------3b---|------------3b---|
C|-0--------------------------|-0---6-8----8\-5--5-3-5-3----5-|--5-5-3-5-3----5-|
PM                                                 |---|             |---|
                                                      *Massive slowdown here*

Who started this game?
Us or them?
A little honesty
Would do no wrong
But until then
We'll sit folding


[Chorus 2] (2:25)

Guitars 1 + 2

d|-----------------------|----------------------|
A|-----------------------|----------------------|
F|-----------------------|----------------------| 4x
C|-3--0------------------|--3--0----------------|
G|-3--0---------4--------|--3--0---10--8--4-----|
C|-3--0---0--3-----0--3--|--3--0-------------4--|
PM                          |--|

Our paper planes
Our paper planes
Our paper planes


[Post-Chorus 2] (2:52)

Guitar 1

d|-----------------------|----------------------|
A|-----------------------|----------------------|
F|-----------------------|----------------------|
C|-3--0------------------|--3--0----------------|
G|-3--0---------4--------|--3--0---10--8--4-----|
C|-3--0---0--3-----0--3--|--3--0-------------4--|
PM                          |--|

d|-----------------------|-----------|
A|-----------------------|-----------|
F|-----------------------|-----------|
C|-3--0------------------|--3--4--6--|
G|-3--0---------4--------|--3--4--6--|
C|-3--0---0--3-----0--3--|--3--4--6--|
PM                          |-----|

d|-----------|-----------|
A|-----------|-----------|
F|-----------|-----------|
C|-8---------|-10--------|
G|-8---------|-10--------|
C|-8---------|-10--------|

Guitar 2
                   *Let ring out*
d|--------------------10-|---------------------|
A|-----------------10----|---------------------|
F|-10--------------------|---------------------|
C|-12--------------------|---------------------|
G|-----------------------|---------------------|
C|-----------------------|---------------------|

d|--------------------------------|----------------|
A|--------------------------------|----------------|
F|--------------------------------|----------------|
C|--------------------------------|----------------|
G|-----8p6-8p6-8p6-8--8p6-8p6-8p6-|----------------|
C|-6-8----------------------------|-8--10~---------|

And then we throw them all away
And then start shunning again


[Clean Interlude] (3:13)

Guitar 1 (Distortion)

d|--------|
A|--------|
F|--------|
C|-0------|
G|-0------|
C|-0------|
PM -

Guitar 2 (Clean Rhythm)

d|-----------|---------------|----------------|------------|------------|---------------|
A|------7~---|------7~-7-7b~-|------7----7----|------------|------7-----|------7--7-7b~-|
F|----5------|----5----------|----5----5---7~-|------------|----5-------|----5----------|
C|-----------|---------------|----------------|------------|------------|---------------|
G|-----------|---------------|----------------|------------|------------|---------------|
C|-0---------|-0-------------|-0--------------|------------|-0----------|--0------------|

d|--------------|-----------|-----------|-----------------|----------------|-----------|
A|-----7------3-|-----------|------7----|-----7-8-8-8-8-7-|------7--8-7----|-----------|
F|---5----3-5---|-----------|----5------|---5-------------|----5--------7~-|-----------|
C|--------------|-----------|-----------|-----------------|----------------|-----------|
G|--------------|-----------|-----------|-----------------|----------------|-----------|
C|-0------------|-----------|-0---------|-0---------------|-0--------------|-----------|

Guitar 3 (Clean Lead)

d|--------|---------|---------------|---16h17p16-14-|-------14-16-|-16h17---14---14-16-16h17-12-|
A|--------|---------|----19---(19)--|---------------|-----13------|------------17---------------|
F|--------|---------|--------17-(19)|---------------|-------------|-----------------------------|
C|--------|---------|---------------|---------------|-------------|-----------------------------|
G|--------|---------|---------------|---------------|-------------|-----------------------------|
C|--------|---------|---------------|---------------|-------------|-----------------------------|

d|-14-16-17-16--14-12-14-|--------|------16-|-15-15-14-13--14-15h16--15-14-15-|
A|-----------------------|----13--|---------|---------------------------------|
F|-----------------------|--------|---11----|---------------------------------|
C|-----------------------|--------|---------|---------------------------------|
G|-----------------------|--------|---------|---------------------------------|
C|-----------------------|--------|---------|---------------------------------|

d|-16-15-16-17---20---20-19-17-|-----------------|
A|-----------------------------|-----------------|
F|-----------------------------|-----------------|
C|-----------------------------|-----------------|
G|-----------------------------|-----------------|
C|-----------------------------|-----------------|

Again
Again
Again
Again


[Solo] (3:53)

Guitar 1

d|-----------------|-----------------|-----------------|-------------------|
A|-----------------|-----------------|-----------------|-------------------|
F|-----------------|-----------------|-----------------|-------------------| 6x
C|-0---------------|-----------------|-----------------|-3--3--3--3b=3==3--|
G|-0---------4-----|-----5--3--------|-----------4-----|-3--3--3--3b=3==3--|
C|-0---0--3-----0--|-3---------4--3--|-0---0--3-----0--|-3--3--3--3b=3==3--|
PM                                                       |-----------|

Guitar 2

d|-----------------|-----------------|-----------------|-------------------|
A|-----------------|-----------------|-----------------|-------------------|
F|-----------------|-----------------|-----------------|-------------------|
C|-0---------------|-----------------|-----------------|-3--3--3--3b=3==3--|
G|-0---------4-----|-----5--3--------|-----------4-----|-3--3--3--3b=3==3--|
C|-0---0--3-----0--|-3---------4--3--|-0---0--3-----0--|-3--3--3--3b=3==3--|
PM                                                       |-----------|

d|-----------------|-----------------|-----------------|-------------------|
A|-----------------|-----------------|-----------------|-------------------|
F|-----------------|-----------------|-----------------|-------------------| 5x
C|-0---------------|-----------------|-----------------|-3b~---------------|
G|-0---------4-----|-----5--3--------|-----------4--5--|-------------------|
C|-0---0--3-----0--|-3---------4--3--|-0---0--3--------|-------------------|

Guitar 3 (4:12)

d|---------------------|-------------------------------------|-----------------------|
A|---------------------|-------------------------------------|-----------------------|
F|-/14~~\-/13~~\-/13~\-|/13~-13h14b=14=14=14r14b=14=14=14=14-|-12-11-11--12-14-14b=r-|
C|---------------------|-------------------------------------|-----------------------|
G|---------------------|-------------------------------------|-----------------------|
C|---------------------|-------------------------------------|-----------------------|

d|----------------------------|---------------------|-----------16-x-17-----x--16-|-x-17-16-------17-x-|
A|----------------------------|---------------------|--------------x---16-17------|-x-------x--17----x-|
F|-14b-12-14-14b=14=14=14=14r-|-12-11-11b-8--9-8-9--|-----10----------------------|--------------------|
C|----------------------------|---------------------|-10-----10-------------------|--------------------|
G|----------------------------|---------------------|-----------------------------|--------------------|
C|----------------------------|---------------------|-----------------------------|--------------------|
                            *Play very sloppily, add a lot of mutes, and hit extra notes around this part*

d|-17-17-17p16p13-x--x-x-x--x-x-x--x-x-|---------------|--------------------|----------------------|--------|
A|----------------x--x-x-x--x-x-x--x-x-|---------------|--------------------|----------------------|--------|
F|----------------10p7p6-10p7p6-10p7p6-|-/14~~\-/13~~\-|-/12~~\-/10--9--10--|-10~--7-10-10*-7-10-7-|-10br~~-|
C|----------------x--x-x-x--x-x-x--x-x-|---------------|--------------------|----------------------|--------|
G|----------------(Play over and over)-|---------------|--------------------|----------------------|--------|
C|-------------------------------------|---------------|--------------------|----------------------|--------|

d|---------------|---------------------|-----------------|------------|
A|---------------|---------------------|-----------------|------------|
F|-/14~~\-/13~~\-|-/12~~\-/10--12--10--|-10~--10h12--12--|-12b~-------|
C|---------------|---------------------|-----------------|------------|
G|---------------|---------------------|-----------------|------------|
C|---------------|---------------------|-----------------|------------|


[Outro] (4:53)

Guitar 1

d|-----------------|-----------------|-----------------|-------------------|
A|-----------------|-----------------|-----------------|-------------------|
F|-----------------|-----------------|-----------------|-------------------|
C|-0---------------|-----------------|-----------------|-3--3--3--3b=3==3--|
G|-0---------4-----|-----5--3--------|-----------4-----|-3--3--3--3b=3==3--|
C|-0---0--3-----0--|-3---------4--3--|-0---0--3-----0--|-3--3--3--3b=3==3--|
PM                                                       |-----------|

d|-----------------|-----------------|-----------------|----------------------|
A|-----------------|-----------------|-----------------|----------------------|
F|-----------------|-----------------|-----------------|----------------------|
C|-0---------------|-----------------|-----------------|-0--0--0--1--1--1--0--|
G|-0---------4-----|-----5--3--------|-----------4-----|-0--0--0--1--1--1--0--|
C|-0---0--3-----0--|-3---------4--3--|-0---0--3-----0--|-0--0--0--1--1--1--0--|
PM                                                       |-----------|

Guitar 2

d|-----------------|-----------------|-----------------|-----------------|
A|-----------------|-----------------|-----------------|-----------------|
F|-----------------|-----------------|-----------------|-----------------|
C|-0---------------|-----------------|-----------------|-3b--------------|
G|-0---------4-----|-----5--3--------|-----------4--5--|-----------------|
C|-0---0--3-----0--|-3---------4--3--|-0---0--3--------|-----------------|

d|-----------------|-----------------|-----------------|-----------------|
A|-----------------|-----------------|-----------------|-----------------|
F|-----------------|-----------------|-----------------|-----------------|
C|-0---------------|-----------------|-----------------|-3b--------1--0--|
G|-0---------4-----|-----5--3--------|-----------4--5--|-----------1--0--|
C|-0---0--3-----0--|-3---------4--3--|-0---0--3--------|-----------1--0--|

Guitar 3

d|-----------|---------------|-----------|---------|
A|-----------|---------------|-----------|---------|
F|-----------|---------------|-----------|---------|
C|-7----6----|-5----3--2--3--|-3---3--5--|-3-------|
G|-----------|---------------|-----------|---------|
C|-7----6----|-5----3--2--3--|-3---3--5--|-3-------|

d|-----------|---------------|-----------|------------|
A|-----------|---------------|-----------|------------|
F|-----------|---------------|-----------|------------|
C|-7----6----|-5----3--5--7--|-3---3--5--|-5b===1--0--|
G|-----------|---------------|-----------|------1--0--|
C|-7----6----|-5----3--5--7--|-3---3--5--|-5b===1--0--|



As always, message me if you have any revisions. Be sure to listen to the song repeatedly to understand
the feel of the clean parts and the solo. 
Suggest correction
Creating personal tab
Creating personal tab
You can edit any tab online and save it as your Personal.

You can edit, replace or remove any tab part or add personal notes – all changes will be seen only by you.

Personal tabs can be accessed anytime from any device, even offline.
Learn more »
Give kudos to tab author, rate the tab!
1 2 3 4 5
comments
print report bad tab
guest
You may want to rate the tab now too:
select rating
Wanna post a correction for this tab? Suggest correction