Oops, an error
Loading. Please wait.

Relapse tab

82 views 1 this week
1 commentread comment
1 2 3 4 5
3 more votes to show rating
add to favorites
×
Save as Personal and add changes to this tab that will be seen only by you. Learn more ›
×
You can save this tab as Personal to edit and correct it or add notes. All changes will be seen only by you. Learn more »
launch autoscroll
font size
0
reset
how to read this tab
guitar tuner
edit
Autoscroll
slow
fast
+/-
esc
set tempo
stop
Artist - Pregnant Whale Pain
Album - Pregnant Whale Pain
Song - Relapse
Tabbed By - Basher89

All Guitars - Drop C (C G C F A D)

BPM - 132

b - Bend
r - Release
. - Palm Mute
/ - Slide Up
\ - Slide Down
t - Tremolo Pick
h - Hammer On
p - Pull Off
~ - Vibrato
x - Mute
() - Natural Harmonic
*  - Artificial Harmonic
=  - Hold Bend


[Intro] (0:00)

Bassline

F|-------------|-------------------------------------|
C|-------------|-------------------------------------| 7x
G|-------------|-------------------------------------|
C|-3--0--0--0--|-7--0--0--0--6--0--0--0--7--0--3--5--|
   *Slapped*

Clean Guitar (0:14)

d|-----------------|-----------------|-----------------|-----------------|
A|-----------------|-----------------|-----------------|-----------------|
F|-----7-5-----7-5-|-----7-------7---|-----7-------7---|-----7-5-----7---| 5x
C|---7-------7-----|---7---7---7-----|---7---7---7-----|---7-------7---7-|
G|-5-------5-------|-5-------5-------|-5-------5-------|-5-------5-------|
C|-----------------|-----------------|-----------------|-----------------|
PM - -     - -       - - - - - -       - -   - - -       - -     - -   -

Guitar 1 (0:51)

d|----------------------|-----------------------|      |----------------------|---------|
A|----------------------|-----------------------|      |----------------------|---------|
F|----------------------|-----------------------| 3x   |----------------------|---------|
C|----------------------|---------------11--14--|      |----------------------|---------|
G|----------------------|-----------------------|      |----------------------|---------|
C|-0-12-15-0-12-15-0-12-|-15-0-12-15-0----------|      |-0-12-15-0-12-15-0-11-|-0-------|


Let blood back in my veins
Brief moment of false strength
Warm colours feed my eyes
Let myself go tonight
(Let go)


[Verse] (1:06)

Guitar 1

d|----------------------|-----------------------|      |---------------------|--------------------|
A|----------------------|-----------------------|      |---------------------|--------------------|
F|----------------------|-----------------------| 3x   |---------------------|--------------------|
C|----------------------|---------------11--14--|      |---------------------|--------------------|
G|----------------------|-----------------------|      |---------------------|--------------------|
C|-0-12-15-0-12-15-0-12-|-15-0-12-15-0----------|      |-0-12-15-0-11-15-0-8-|-9-0-8-7-5-6-5-4-3--|

d|-------------|------------|
A|-------------|------------|
F|-------------|------------|
C|-------------|------------|
G|-------------|------------|
C|-0--0--0--0--|----0-12-15-|
PM                  - -  -

d|----------------------|-----------------------|      |---------------------|--------------------|
A|----------------------|-----------------------|      |---------------------|--------------------|
F|----------------------|-----------------------| 3x   |---------------------|--------------------|
C|----------------------|---------------11--14--|      |---------------------|--------------------|
G|----------------------|-----------------------|      |---------------------|--------------------|
C|-0-12-15-0-12-15-0-12-|-15-0-12-15-0----------|      |-0-12-15-0-11-15-0-8-|-9-0-8-7-5-6-5-4-3--|


Guitar 2

d|----------------------|-----------------------|    |---------------------|--------------------|------------|
A|----------------------|-----------------------|    |---------------------|--------------------|------------|
F|----------------------|-----------------------| 3x |---------------------|--------------------|------------|
C|----------------------|---------------11--14--|    |---------------------|--------------------|------------|
G|-0-12-15-0-12-15-0-12-|-15-0-12-15------------|    |-0-12-15-0-11-15-0-8-|-9-0-8-7-5-6-5-4-3~-|------------|
C|----------------------|------------0----------|    |---------------------|--------------------|-0--0--0--0-|

d|----------------------|-----------------------|    |---------------------|--------------------|
A|----------------------|-----------------------|    |---------------------|--------------------|
F|----------------------|-----------------------| 3x |---------------------|--------------------|
C|----------------------|---------------11--14--|    |---------------------|--------------------|
G|-0-12-15-0-12-15-0-12-|-15-0-12-15------------|    |-0-12-15-0-11-15-0-8-|-9-0-8-7-5-6-5-4-3~-|
C|----------------------|------------0----------|    |---------------------|--------------------|


Guitars 1 + 2 (1:41)

d|-------------|-------------|-------------|-------------|
A|-------------|-------------|-------------|-------------|
F|-------------|-------------|-------------|-------------|
C|-0--0--0--7--|-0--0--0--6--|-0--0--0--7--|-0--3--5--3--|
G|-0--0--0--7--|-0--0--0--6--|-0--0--0--7--|-0--3--5--3--|
C|-0--0--0--7--|-0--0--0--6--|-0--0--0--7--|-0--3--5--3--|

d|-------------|-------------|-------------|-------------|---1-1-1---|
A|-------------|-------------|-------------|-------------|---3-3-3---|
F|-------------|-------------|-------------|-------------|---2-2-2---|
C|-0--0--0--7--|-0--0--0--6--|-0--0--0--7--|-0--3--2-1-0-|-----------|
G|-0--0--0--7--|-0--0--0--6--|-0--0--0--7--|-0--3--2-1-0-|-----------|
C|-0--0--0--7--|-0--0--0--6--|-0--0--0--7--|-0--3--2-1-0-|-----------|
PM                                                 - -

Spin me around
Fall to the ground
I'll be alright
It's not my first time

I'm a bird with a broken leg
I fly but can never land


[Verse 2] (1:59)

Guitars 1 + 2

d|----------------------|-----------------------|      |---------------------|-----------------|
A|----------------------|-----------------------|      |---------------------|-----------------|
F|----------------------|-----------------------| 3x   |---------------------|-----------------|
C|----------------------|---------------11--14--|      |---------------------|-----------------|
G|----------------------|-----------------------|      |---------------------|-----------------|
C|-0-12-15-0-12-15-0-12-|-15-0-12-15-0----------|      |-0-12-15-0-11-15-0-8-|-9-0-8-7-0-3-2-1-|
PM - -  -  - -  -  - -    -  - -  -  -                   - -  -  - -  -  - -   - - - - - - - - 

d|--------------------------------------------|      |-------------------------------------|
A|--------------------------------------------|      |-------------------------------------|
F|--------------------------------------------| 3x   |-------------------------------------|
C|------------------------------------11--14--|      |-------------------------------------|
G|--------------------------------------------|      |-------------------------------------|
C|-0-12-15-0-12-15-0-12-15-0-12-15-0----------|      |-0-12-15-0-11-15-0-8-9-0-8-7-0-3-2-1-|
   - -  -  - -  -  - -  -  - -  -  -                   - -  -  -

Well, I guess I have been wrong
This takes far too long
My body won't be healthy again
And my soul -- my soul has never been


[Chorus] (2:28)

Guitars 1 + 2

d|-----1--1-1-|---------|----------|---------------------|-------------|
A|-----3--3-3-|-9---10--|----------|---------------------|-------------|
F|-----2--2-2-|-8---9---|------4b--|---------------------|-------------|
C|-0----------|-6---7---|-3--------|---------------------|-------------|
G|-0----------|-6---7---|-3--------|--------3------------|----1--------|
C|-0----------|-6---7---|-3--------|-3-4-4-----4--3-3-0--|-1-----2--1--|

d|-------1-1-|---------|----------|-----------------------------|
A|-------3-3-|-9---10--|----------|-----------------------------|
F|-------2-2-|-8---9---|------4b--|-----------------------------| 2x
C|-0---------|-6---7---|-3--------|---------------------11--14--|
G|-0---------|-6---7---|-3--------|-----------------------------|
C|-0---------|-6---7---|-3--------|-12-0-0--12--15--0-----------|

d|----------------------|-----------------------|      |----------------------|----------------------|
A|----------------------|-----------------------|      |----------------------|----------------------|
F|----------------------|-----------------------| 3x   |----------------------|----------------------|
C|----------------------|---------------11--14--|      |----------------------|---------------11--14-|
G|----------------------|-----------------------|      |----------------------|----------------------|
C|-0-12-15-0-12-15-0-12-|-15-0-12-15-0----------|      |-0-12-15-0-12-15-0-12-|-15-0-12-15-0---------|


It is like water, poured over my face and
The ice-cold reality wakes me again
Colours and shapes now they all disappear
When I open my eyes I'm blind again


[Solo] (3:14)

Guitar 1

d|----------|---------------|--------|------------|----------|------------|-------|-------|
A|----------|---------------|--------|------------|----------|------------|-------|-------|
F|----------|---------------|--------|------------|----------|------------|-------|-------|
C|-14b-12---|---0-12--0--12-|-11~----|---11-12-14-|-14br12---|---12-12-12-|-11----|-------|
G|----------|---------------|--------|------------|----------|------------|-------|-11b---|
C|----------|---------------|--------|------------|----------|------------|-------|-------|

d|--------------|------------------|
A|--------------|------------------|
F|--------------|------------------| 16x
C|-0---0--0---0-|-0---0--3--0--3---|
G|-0---0--0---0-|-0---0--3--0--3---|
C|-0---0--0---0-|-0---0--3--0--3---|
PM -   -  -   -   -   -  -  -

d|-----------------------------------|      |-----------------------|
A|-----------------------------------|      |-----------------------|
F|-----------------------------------| 3x   |-----------------------|
C|-0---0--0------0-------------------|      |-0---0--0------0---0---|
G|-0---0--0------0-------------------|      |-0---0--0------0---0---|
C|-0---0--0------0---0-0-0-0-0-0-0-0-|      |-0---0--0------0---0---|
PM -   -  -      -   - - - - - - - -          -   -  -      -   -

Guitar 2

d|----------|---------------|--------|-----------|----------|------------|-------|-------|
A|----------|---------------|--------|-----------|----------|------------|-------|-------|
F|----------|---------------|--------|---9-10-12-|-12br10---|---10-10-10-|-9~----|-------|
C|-14b-12---|---0-12--0--12-|-11~----|-----------|----------|------------|-------|-10b---|
G|----------|---------------|--------|-----------|----------|------------|-------|-------|
C|----------|---------------|--------|-----------|----------|------------|-------|-------|

d|------------------|--------|--------------------|--------------------|---------------------|---------|
A|------------------|--------|--------------------|--------------------|---------------------|---------|
F|-------12br10-12b-|--12-12-|-12r--10-12br12br10-|-12br10-12b---12-12-|-12\-----------------|---------|
C|-/12~-------------|--------|--------------------|--------------------|-----10\-10\-10\-10\-|-10\-10~-|
G|------------------|--------|--------------------|--------------------|---------------------|---------|
C|------------------|--------|--------------------|--------------------|---------------------|---------|

d|------------|---------------|----------------|------------------|-------------|------------|--------------|
A|------------|--13-----13-13-|-13-13-13-------|------------13-10-|-10~---10h13-|-13b--13br--|-10-----------|
F|-12br10-12b-|-----12b----12b|-12b12b12b---12b|-----12br10-------|-------------|------------|----13-12-10--|
C|------------|---------------|----------------|-12~--------------|-------------|------------|--------------|
G|------------|---------------|----------------|------------------|-------------|------------|--------------|
C|------------|---------------|----------------|------------------|-------------|------------|--------------|

                                                                                 --Play phrase 4x--
d|-----------------------------|-----------------------|-----------------------|-------------------|
A|-----------------------------|-----------------------|--13-10----------------|-------------------|
F|--------------10-10-12-12-10-|-12b--12r10-12b-12r-10~|--------13-12--10------|-13p12p10-13p12p10-|
C|-12h15--10-12----------------|-----------------------|-------------------12--|-------------------|
G|-----------------------------|-----------------------|-----------------------|-------------------|
C|-----------------------------|-----------------------|-----------------------|-------------------|

d|-----------------|-------------|-------------|------------------|---------------|-------------|
A|-----------------|-------------|-------------|------------------|---------------|-------------|
F|------10-12--12b-|---10-12~----|---10-12--12b|--12b12b12br10-12b|------10-12-12b|---10h12p10~-|
C|-12~-------------|----------11~|-------------|------------------|--10~----------|-------------|
G|-----------------|-------------|-------------|------------------|---------------|-------------|
C|-----------------|-------------|-------------|------------------|---------------|-------------|

d|-----------------|-------------------|----------------------------|
A|-----------------|-------------------|----------------------------|
F|-12br-10-12br-10-|-12-10-------------|----------------------------|
C|-----------------|-------12-10-------|----------------------10h12~|
G|-----------------|-------------12-10-|----------------10h12-------|
C|-----------------|-------------------|-12\---10h11h12-------------|

d|----------|---------------------|-----------------|---------------|--------------------|
A|----------|---------------------|-----------------|-12-----12-----|--------------------|
F|----------|-12br--10------------|-----------------|-12b----12r----|--10*---------------|
C|----12-12-|----------12--10--12-|-12b---12--12-12-|---------------|-----12-10----------|
G|----------|---------------------|-----------------|---------------|-----------12-10-8--|
C|----------|---------------------|-----------------|---------------|--------------------|

d|---------------------|--------------------------|---------------------------------|
A|---------------------|--------------------------|---------------------------------|
F|---------------------|--------------------------|---------------------------------|
C|---------------------|--------------------------|---------------------------------|
G|-11--10--8-11--10--8-|--11p10p8-11p10p8-11p10p8-|-11p10p8-11p10p8-11p10p8-11p10p8-|
C|---------------------|--------------------------|---------------------------------|

d|--------------------------------------------|------------------------------|
A|---------------------10h11p10h12p10h13p10---|------------------------------|
F|----------------10h12--------------------13-|-12p10------------------------| 4x
C|-----------10h12----------------------------|------12p10-------------------|
G|------10h12---------------------------------|-----------12p10--------------|
C|-10h12--------------------------------------|----------------15p14p12\-----|


Guitar 1 (4:43)

d|---------------------|-------------|     |-------------------|-------------------|
A|---------------------|-------------|     |-------------------|-------------------|
F|---------------------|-------------| 3x  |-------------------|-------------------| 2x
C|---------------------|-------------|     |-------------------|-------------------|
G|--------3------------|----1--------|     |-------1-----------|----1--------------|
C|-3-4-4-----4--3-3-0--|-1-----2--1--|     |-0--1-----2--1--0--|-1-----2--1--2--1--|


Guitar 2

d|---------------------|-------------|     |-------------------|-------------------|
A|---------------------|-------------|     |-------------------|-------------------|
F|---------------------|-------------| 3x  |-------------------|-------------------| 2x
C|--------3------------|----0--------|     |-------0-----------|----0--------------|
G|---------------------|-------------|     |-------------------|-------------------|
C|-3-4-4-----4--3-3-0--|-1-----2--1--|     |-0--1-----2--1--0--|-1-----2--1--2--1--|


[Chorus 2] (4:56)

Guitars 1 + 2

d|-----1--1-1-|---------|---------|------------------------|
A|-----3--3-3-|-9---10--|---------|------------------------|
F|-----2--2-2-|-8---9---|---------|------------------------|
C|-0----------|-6---7---|---8-----|-8-8-8--8--3--3--0--3---|
G|-0----------|-6---7---|---8-----|-8-8-8--8--3--3--0--3---|
C|-0----------|-6---7---|---8-----|-8-8-8--8--3--3--0--3---|

d|-------1-1-|---------|----------|-----------------------------|
A|-------3-3-|-9---10--|----------|-----------------------------|
F|-------2-2-|-8---9---|------4b--|-----------------------------|
C|-0---------|-6---7---|-3--------|---------------------11--14--|
G|-0---------|-6---7---|-3--------|-----------------------------|
C|-0---------|-6---7---|-3--------|-12-0-0--12--15--0-----------|

d|-----1--1-1-|---------|---------|--------------------------|
A|-----3--3-3-|-9---10--|---------|--------------------------|
F|-----2--2-2-|-8---9---|---------|--------------------------|
C|-0----------|-6---7---|---8-----|-10--10--10--3--3--0--3---|
G|-0----------|-6---7---|---8-----|-10--10--10--3--3--0--3---|
C|-0----------|-6---7---|---8-----|-10--10--10--3--3--0--3---|

d|-------1-1-|---------|----------|-----------------------------|-----------------------------|
A|-------3-3-|-9---10--|----------|-----------------------------|-----------------------------|
F|-------2-2-|-8---9---|------4b--|-----------------------------|-----------------------------|
C|-0---------|-6---7---|-3--------|---------------------11--14--|---------------------11--14--|
G|-0---------|-6---7---|-3--------|-----------------------------|-----------------------------|
C|-0---------|-6---7---|-3--------|-12-0-0--12--15--0-----------|-12-0-0--12--15--0-----------|

Guitar 1

d|---------------------------|---------------|-----------------------|
A|---------------------------|---------------|-----------------------|
F|---------------------------|---------------|-----------------------|
C|--------------------11--14-|----11--14~----|-14--11--14--11b~---\--|
G|---------------------------|---------------|-----------------------|
C|-12-0-0--12--15--0---------|-0-------------|-----------------------|

Guitar 2

d|---------------------------|-----------------|-------------------------|
A|---------------------------|-----------------|-------------------------|
F|---------------------------|--------------12-|-------------------------|
C|--------------------11--14-|----11--14~------|-14-12-14~--11-----------|
G|---------------------------|-----------------|------------11--11b~--\--|
C|-12-0-0--12--15--0---------|-0---------------|-------------------------|


It is like water, poured over my face and
The ice-cold reality wakes me again
Colours and shapes now they all disappear
When I open my eyes I'm blind again
It is like water, poured over my face
And I'm awake again

*****************************************
h - Hammer-on
p - Pull-off
b - Bend
r - Release
\ - Slide Down
~ - Vibrato
x - Mute

            
            
Suggest correction
Creating personal tab
Creating personal tab
You can edit any tab online and save it as your Personal.

You can edit, replace or remove any tab part or add personal notes – all changes will be seen only by you.

Personal tabs can be accessed anytime from any device, even offline.
Learn more »
Give kudos to tab author, rate the tab!
1 2 3 4 5
comments
print report bad tab
1 comment total.
0 reply
ColePennock 10 Mar 30, 2016 10:07 AM

Awesome work dude,keep it up

guest
You may want to rate the tab now too:
select rating
Wanna post a correction for this tab? Suggest correction