Oops, an error
Loading. Please wait.

When Home Is Wrong tab

70 views 1 this week
no commentswrite comment
1 2 3 4 5
3 more votes to show rating
add to favorites
×
Save as Personal and add changes to this tab that will be seen only by you. Learn more ›
×
You can save this tab as Personal to edit and correct it or add notes. All changes will be seen only by you. Learn more »
launch autoscroll
font size
0
reset
how to read this tab
guitar tuner
edit
Autoscroll
slow
fast
+/-
esc
set tempo
stop
Artist - Pregnant Whale Pain
Single - When Home is Wrong
Song - When Home Is Wrong
Tabbed by - Basher89

All Guitars - (B G C F A d)

h   Hammer-on
p   Pull-off
r   Release
b   Bend
/   Slide up
\   Slide down
~   Vibrato 


[Intro] (0:00)

Guitar 1

d|-------------|-------------|----------|----------|
A|-----0-----0-|-----0-------|-0--------|-0--------|
F|---6-----6---|---6---6---6-|--------6-|----------| 4x
C|-5-----5-----|-4-------3---|------3---|----------|
G|-------------|-------------|----------|----------|
B|-------------|-------------|----------|----------|

Guitar 2 (0:13)

d|-------------------|-------------------|-----------------|--------|
A|-14-14-14-14-14-12-|-12-12-12-12-10-10-|-12-14b-14b-14r~-|--------|
F|-------------------|-------------------|-----------------|--------| 2x
C|-------------------|-------------------|-----------------|--------|
G|-------------------|-------------------|-----------------|--------|
B|-------------------|-------------------|-----------------|--------|

No wonder you're alone
Your eyes are home grown
You've built them by yourself
Mine are from someone else


[Interlude] (0:25)

Guitar 1

d|-------------|-------------|-7-7-7-7-7-7-|-7-7-7-7-7-7-|
A|-------------|-------------|-7-7-7-7-7-7-|-7-7-7-7-7-7-|
F|---6-7---6-7-|---7-6---7-6-|-9-9-9-9-9-9-|-9-9-9-9-9-9-| 2x
C|-------------|-------------|-------------|-------------|
G|-5-----5-----|-5-----------|-------------|-------------|
B|-------------|-------------|-------------|-------------|

d|-------------|-----------|-------------|-------------|-------------|-----------|
A|-------------|-----------|-9-9-9-9-9-9-|-9-9-9-9-9-9-|-7-7-7-7-7-7-|-5-5-5-5---|
F|---6-7---6-7-|---7-6-4\--|-9-9-9-9-9-9-|-8-8-8-8-8-8-|-7-7-7-7-7-7-|-6-6-6-6---|
C|-------------|-----------|-9-9-9-9-9-9-|-9-9-9-9-9-9-|-7-7-7-7-7-7-|-7-7-7-7---|
G|-5-----5-----|-5---------|-------------|-------------|-------------|-----------|
B|-------------|-----------|-------------|-------------|-------------|-----------|

Guitar 2

d|----------------------|----------------|-------|-------|
A|--10-10h12p10---------|---12-10--------|-------|-------|
F|--------------11-9----|-9-11----11~--9-|-------|-------| 2x
C|-------------------12-|----------------|-------|-------|
G|----------------------|----------------|-------|-------|
B|----------------------|----------------|-------|-------|

d|----------------------|------------------|-----------------------|------------|
A|--10-10h12p10---------|---12-10----------|-----------------------|----0---0---|
F|--------------11-9----|-9-11----11-11-11-|-11b--13p11-13p11p9--8-|-8~---8---8-|
C|-------------------12-|------------------|-----------------------|------------|
G|----------------------|------------------|-----------------------|------------|
B|----------------------|------------------|-----------------------|------------|

d|-10--9--7------9--7---|-9---9--9--9--9--9----|
A|---10-10-10--10-10-10-|--10-10-10-10-10-10---|
F|-----------11---------|----------------------|
C|----------------------|----------------------|
G|----------------------|----------------------|
B|----------------------|----------------------|

Hands are there to keep your eyelids wide open
You can't be awake, a slave to yourself with arms
Broken and bruised
But as long as we're both down here
I can't quite see how someone watching over us
Affects anything


[Verse 2] (0:52)

Guitar 1

d|-------------|-------------|----------|---------|
A|-----0-----0-|-----0-------|-0--------|-0-------|
F|---7-----7---|---7---6---6-|--------6-|---------| 4x
C|-5-----5-----|-4-------3---|------3---|---------|
G|-------------|-------------|----------|---------|
B|-------------|-------------|----------|---------|

Guitar 2 (1:04)

d|-------------------|-------------------|-----------------|--------|
A|-14-14-14-14-14-12-|-12-12-12-12-10-10-|-12-14b-14b-14r~-|--------|
F|-------------------|-------------------|-----------------|--------| 2x
C|-------------------|-------------------|-----------------|--------|
G|-------------------|-------------------|-----------------|--------|
B|-------------------|-------------------|-----------------|--------|

Distorted Guitars (Chord swell at 1:15)

d|-----|
A|-----|
F|-----|
C|-2---|
G|-2---|
B|-3---|

The question is clear; what will you do?


[Chorus] (1:17)

Guitar 1

d|-------------|--------------|---------------|-----------|
A|-------------|--------------|---------------|-----------|
F|-------------|--------------|---------0-0-0-|-----------| 6x
C|-2---2-2-2-2-|-5--5-5-5-5-5-|-0--0--0-0-0-0-|-----------|
G|-2---2-2-2-2-|-5--5-5-5-5-5-|-0--0--0-0-0-0-|-0-0-0-0-0-|
B|-3---3-3-3-3-|-6--6-6-6-6-6-|-1--1--1-------|-1-0-0-0-0-|
(On sixth time, cut out mid-phrase)

Guitar 2 (1:34)

d|-------------|--------------|---------------|-----------|
A|-------------|--------------|---------------|-----------|
F|-------------|--------------|---------------|-----------| 4x
C|-----------9-|---------8----|---------------|-----------|
G|-----7-------|--10-------10-|-9~------------|--10-10-10-|
B|-6-----------|--------------|---------------|-----------|

Guitar 3 (1:50)

d|-------------|--------------|---------------|-----------|
A|-12~------12-|-14b--12---12-|-10----10--10--|-10--8---8-|
F|-----12~-----|--------------|---------------|-----------|
C|-------------|--------------|---------------|-----------|
G|-------------|--------------|---------------|-----------|
B|-------------|--------------|---------------|-----------|

d|-------------|--------|
A|-8~--5----8--|-10b--8-|
F|-------------|--------|
C|-------------|--------|
G|-------------|--------|
B|-------------|--------|

When home is wrong?
I know you will


[Outro] (2:02)

Guitar 1

d|-------2-----|-------2-----|-------------|-------------|-------------|-------------|-------------|
A|-------1-----|---1---1-----|---1-1-1-----|-----------1-|---1-------1-|-----------1-|-------1-1-1-|
F|-------0-----|---0---0-----|---0-0-0-----|---0-------0-|---0-------0-|-------0---0-|-------0-0-0-|
C|-------4-----|---4---4-----|---4-4-4-----|---4-------4-|---4-------4-|-------4---4-|-------4-4-4-|
G|-------------|-------------|-------------|-------------|-------------|-------------|-------------|
B|-1-0-0---1-0-|-0-------1-0-|-0-------1-0-|-0---1-0-0---|-----1-0-0---|-1-0-0-------|-1-0-0-------|

d|-------2--------2-|
A|-------1--------1-|
F|----------------0-|
C|----------------4-|
G|-0--0-----0--0----|
B|-1--0-----1--0----|
PM |--|     |--|

d|-------------|-------------|-------2-----|-------------|-------------|-------------|-----------------|
A|-------1-----|---1---1-----|---1-1-1-----|-------------|---1---------|---1-------1-|---1-------1-1-1-|
F|-------0-----|---0---0-----|---0-0-0-----|---0-------0-|---0---------|---0-------0-|---0-------0-0-0-|
C|-------4-----|---4---4-----|---4-4-4-----|---4-------4-|---4---------|---4-------4-|---4-------4-4-4-|
G|-------------|-------------|-------------|-------------|-------------|-------------|-----------------|
B|-1-0-0---1-0-|-0-------1-0-|-0-------1-0-|-0---1-0-0---|-----1-0-1-0-|-0---1-0-0---|-----1-0-0-------|

d|------------------|
A|-------1----------|
F|-------0--------0-|
C|-------4--------4-|
G|-0--0-----0--0----|
B|-1--0-----1--0----|
PM |--|     |--|

Guitar 2

d|-------------|-------------|-------------|-------------|-------------|-------------|-------------|
A|-------------|-------------|-------------|-------------|-------------|-------------|-------------|
F|-------------|-------------|-------------|-------------|-------------|-------------|-------------|
C|-------------|-------------|-------------|-------------|-------------|-------------|-------------|
G|-------------|-------------|-------------|-------------|-------------|-------------|-------------|
B|-1-0-0---1-0-|-0-------1-0-|-0-------1-0-|-0---1-0-0---|-----1-0-0---|-1-0-0-------|-1-0-0-------|

d|------------------|
A|------------------|
F|------------------|
C|------------------|
G|-0--0-----0--0----|
B|-1--0-----1--0----|
PM |--|     |--|

d|-------------|-------------|-------------|-------------|-------------|-------------|-----------------|
A|-------------|-------------|-------------|-------------|-------------|-------------|-----------------|
F|-------------|-------------|-------------|-------------|-------------|-------------|-----------------|
C|-------------|-------------|-------------|-------------|-------------|-------------|-----------------|
G|-------------|-------------|-------------|-------------|-------------|-------------|-----------------|
B|-1-0-0---1-0-|-0-------1-0-|-0-------1-0-|-0---1-0-0---|-----1-0-1-0-|-0---1-0-0---|-----1-0-0-------|

d|------------------|
A|------------------|
F|------------------|
C|------------------|
G|-0--0-----0--0----|
B|-1--0-----1--0----|
PM |--|     |--|

Teach your children to kill themselves
Not you

            
            
Suggest correction
Creating personal tab
Creating personal tab
You can edit any tab online and save it as your Personal.

You can edit, replace or remove any tab part or add personal notes – all changes will be seen only by you.

Personal tabs can be accessed anytime from any device, even offline.
Learn more »
Give kudos to tab author, rate the tab!
1 2 3 4 5
comments
print report bad tab
guest
You may want to rate the tab now too:
select rating
Wanna post a correction for this tab? Suggest correction