Oops, an error
Loading. Please wait.

Withdrawal Surgery Recovery tab

61 views 1 this week
no commentswrite comment
1 2 3 4 5
3 more votes to show rating
add to favorites
×
Save as Personal and add changes to this tab that will be seen only by you. Learn more ›
×
You can save this tab as Personal to edit and correct it or add notes. All changes will be seen only by you. Learn more »
launch autoscroll
font size
0
reset
how to read this tab
guitar tuner
edit
Autoscroll
slow
fast
+/-
esc
set tempo
stop
Artist - Pregnant Whale Pain
Album - Pregnant Whale Pain
Song - Withdrawal, Surgery & Recovery
Tabbed By - Basher89

All Guitars - Drop C (C G C F A d)

BPM - 80

b - Bend
r - Release
. - Palm Mute
/ - Slide Up
\ - Slide Down
t - Tremolo Pick
h - Hammer On
p - Pull Off
~ - Vibrato
x - Mute
() - Natural Harmonic
*  - Artificial Harmonic
=  - Hold Bend


                        Withdrawal (0:00)

[Intro] (0:00)

Guitar 1

d|------------------|
A|------------------|
F|------------------| 8x
C|-0-0-0------0-0---|
G|-1-1-1------1-1---|
C|-2-2-2------2-2---|
PM |---|      |-|

Guitar 2 (0:14)

d|-----------------------|---------------------|-------------------------|----------------------|
A|--------3-3-x-5-5-5-3--|---x------3-3-x-5-5--|----------3-3-x-5-5-5-3--|---------3-3-x-5-5----|
F|--------3-3-x-5-5-5-3--|---x------3-3-x-5-5--|----------3-3-x-5-5-5-3--|---------3-3-x-5-5----|
C|-----------------------|---------------------|---2*--------------------|----------------------|
G|-----------------------|---------------------|-------------------------|----------------------|
C|-----------------------|---------------------|-------------------------|----------------------|


[Verse] (0:28)

Bassline

F|----------------|------------------|------------------|----------------|
C|----------------|------------------|------------------|----------------| 3x
G|----7-7-7--5----|-4---3--2---------|------------------|----------------|
C|-0--------------|------------2--5--|-2-2-2------------|-2-2-2----------|

F|----------------|------------------|------------------|----------------|----------------|----------------|
C|----------------|------------------|------------------|----------------|----------------|----------------|
G|----7-7-7--5----|-4---3--2---------|------------------|----------------|----------------|----------------|
C|-0--------------|------------2--5--|-2-2-2------------|-2-2-2----------|-2-2-2----------|-2-2-2----------|


Distorted Guitar 1 (0:28)

d|-----------|-----------|-----------------|-----------------|
A|-----------|-----------|-----------------|-----------------|
F|-----------|-----------|-----------------|-----------------| 3x
C|-----------|-----------|-0-0-0-----0-0---|-0-0-0-----0-0---|
G|-----------|-----------|-1-1-1-----1-1---|-1-1-1-----1-1---|
C|-----------|-----------|-2-2-2-----2-2---|-2-2-2-----2-2---|
PM                         |---|     |-|     |---|     |-|

d|-----------|-----------|-----------------|-----------------|-----------------|-----------------|
A|-----------|-----------|-----------------|-----------------|-----------------|-----------------|
F|-----------|-----------|-----------------|-----------------|-----------------|-----------------|
C|-----------|-----------|-0-0-0-----0-0---|-0-0-0-----0-0---|-0-0-0-----0-0---|-0-0-0-----0-0---|
G|-----------|-----------|-1-1-1-----1-1---|-1-1-1-----1-1---|-1-1-1-----1-1---|-1-1-1-----1-1---|
C|-----------|-----------|-2-2-2-----2-2---|-2-2-2-----2-2---|-2-2-2-----2-2---|-2-2-2-----2-2---|
PM                         |---|     |-|     |---|     |-|     |---|     |-|     |---|     |-|


Clean Wah Guitar (0:26)

d|----|---------------------|-----------------------------10-10---|------------------10-10--10-12-|
A|----|--------8----------8-|---------8-10--10/12-12-12-12-----12-|-12~--10-12~-10-12-----12------|
F|-7~-|-7h9--9----9--7--9---|--9--7-9-----------------------------|-------------------------------|
C|----|---------------------|-------------------------------------|-------------------------------|
G|----|---------------------|-------------------------------------|-------------------------------|
C|----|---------------------|-------------------------------------|-------------------------------|

d|-12--12---/15--12-10-12-10-12\--|-------------------------|----10---10---10---10-10--10--10---|
A|--------------------------------|--------8~--------8--8-8-|-10b=r10b=r10b=r10b=r-10br10br10br-|
F|--------------------------------|-7-9-9~-----7--9---------|-----------------------------------|
C|--------------------------------|-------------------------|-----------------------------------|
G|--------------------------------|-------------------------|-----------------------------------|
C|--------------------------------|-------------------------|-----------------------------------|

d|-10--------------10-12-|--12--15--12-10-12-15/17-17-17-|-17~--17b-15--19--22-19-17-15~--|
A|-10b==r--10b-8~--------|-------------------------------|--------------------------------|
F|-----------------------|-------------------------------|--------------------------------|
C|-----------------------|-------------------------------|--------------------------------|
G|-----------------------|-------------------------------|--------------------------------|
C|-----------------------|-------------------------------|--------------------------------|

d|-15-12-----------------------------------------|---------------------|------------------------|
A|-------15-12-----------------------------------|---------------------|------------------------|
F|-------------15-14-12--------------------------|---------------------|------------------------|
C|----------------------14-12--------------------|---------------------|------------------------|
G|----------------------------14-13-12-10-7-10-7-|-7~-7--5-7--5-7--5---|-7--7--10-7--5-7--5-7\--|
C|-----------------------------------------------|---------------------|------------------------|

d|-----------------|-----------------------------------|-------------------------|----------------------|
A|-----------------|-----------------------------------|-------------------------|----------------------|
F|-----------------|-----------------------------------|-------------------------|------------------7-9-|
C|---------0-2-2-4-|-4-5-5-7-7-9-9---7--5--4--2--1--2--|-2---2-4-4-5--5h7--7--7--|-7~--7b-7b-7b=r5------|
G|-----------------|-----------------------------------|-------------------------|----------------------|
C|-2---------------|-----------------------------------|-------------------------|----------------------|

d|---------------------------|-------------------------10-10~--|
A|-----------8-8--8-10-10-10-|-10~-10b--10br10br10~-8----------|
F|---9--7--9-----------------|---------------------------------|
C|---------------------------|---------------------------------|
G|---------------------------|---------------------------------|
C|---------------------------|---------------------------------|

Wish I wouldn't have woken up this morning
I'd burst out in tears, but I'm way too numb to cry
Relearning to care is what should make me a man
And I don't wanna make the same mistakes again


Bassline (1:29)

F|----------------|------------------|------------------|----------------|
C|----------------|------------------|------------------|----------------| 3x
G|----7-7-7--5----|-4---3--2---------|------------------|----------------|
C|-0--------------|------------2--5--|-2-2-2------------|-2-2-2----------|

F|----------------|------------------|-------|
C|----------------|------------------|-------|
G|----7-7-7--5----|-4---3--2---------|-------|
C|-0--------------|------------2--5--|-2-----|


Distorted Guitar 1 (1:29)

d|-----------|-----------|-----------------|-----------------|
A|-----------|-----------|-----------------|-----------------|
F|-----------|-----------|-----------------|-----------------| 3x
C|-----------|-----------|-0-0-0-----0-0---|-0-0-0-----0-0---|
G|-----------|-----------|-1-1-1-----1-1---|-1-1-1-----1-1---|
C|-----------|-----------|-2-2-2-----2-2---|-2-2-2-----2-2---|
PM                         |---|     |-|     |---|     |-|

Clean Wah Guitar (1:29)

d|-12~--12--10--10\9-9\7-7-----5-|-5-3-3-2-3--2--3--3--2--3--3--2--3--|------7--5---7--|------7--------|
A|-------------------------0-0---|------------------------------------|-0----8--7---8--|------8--7-----|
F|-------------------------0-0---|------------------------------------|-0--------------|-------------9~|
C|-------------------------------|------------------------------------|----------------|---------------|
G|-------------------------------|------------------------------------|----------------|---------------|
C|-------------------------------|------------------------------------|----------------|---------------|

d|------------------------|------------------|-------|----------------|-----------------------------|
A|------------------------|------------------|-------|---11b==12--11--|-11~-----11-10-8-10-8--------|
F|---9--7-----------------|------------------|-------|----------------|-----------------------9-7-9-|
C|---------9--7-9-x-7-5---|------------------|-------|----------------|-----------------------------|
G|----------------------7-|-5--7-5h7---7--7--|-7-----|----------------|-----------------------------|
C|------------------------|------------------|-------|----------------|-----------------------------|

d|-----------------------|--------------|-------10--10--10h12-|
A|-----------------------|-----0-0--3-0-|--0------------------|
F|-7-6-4-----------------|-----0-0--4-0-|--0------------------|
C|-------5-7--7-7--5--7--|-5~-----------|---------------------|
G|-----------------------|--------------|---------------------|
C|-----------------------|--------------|---------------------|

d|---12/15\12-15b=15=15=15b=|=15=15=15b=15=15=15=15=15=r|-12-----|
A|--------------------------|---------------------------|--------|
F|--------------------------|---------------------------|--------|
C|--------------------------|---------------------------|--------|
G|--------------------------|---------------------------|--------|
C|--------------------------|---------------------------|--------|

Wish I wouldn't have fallen asleep tonight
So I don't have to wake up and face -- it was only a dream
I'd like you to care, but I am just a man
Who tries to find a way not to make this mistake again


[Breakdown] (2:19)

Distorted Guitars 1 + 2

d|-------------|------------------|-------------|------------------|-----------------|---------|-----------|
A|-------------|------------------|-------------|------------------|-----------------|---------|-----------|
F|-------------|-8----------------|-------------|-8----------------|-----------------|---------|-----------|
C|-8-----------|------------------|-8-----------|------------------|----------8---10-|--8--x-x-|-8---10--8-|
G|-7---7-7-7-7-|---7-7-7-7-7-10-7-|-7---7-7-7-7-|---7-7-7-7-7-10-7-|-10-7-5-7-7---7--|--7--x-x-|-7---7---7-|
C|-------------|------------------|-------------|------------------|-----------------|---------|-----------|

d|------|-------------|------------------|-----------------|------------------|-------------|
A|------|-------------|------------------|-----------------|------------------|-------------|
F|------|-------------|-8----------------|-----------------|-8----------------|-------------|
C|--x-x-|-8-----------|------------------|-x-x-x-----------|------------------|-8-----------|
G|--x-x-|-7---7-7-7-7-|---7-7-7-7-7-10-7-|-x-x-x---7-7-7-7-|---7-7-7-7-7-10-7-|-7---7-7-7-7-|
C|------|-------------|------------------|-----------------|------------------|-------------|

d|------------------|------------------|------------------|-----------------|---------|-----------|
A|------------------|------------------|------------------|-----------------|---------|-----------|
F|-8----------------|------------------|-8----------------|-----------------|---------|-----------|
C|------------------|-x-x-x------------|------------------|----------8---10-|--8--x-x-|-8---10--8-|
G|---7-7-7-7-7-10-7-|-x-x-x----7-7-7-7-|---7-7-7-7-7-10-7-|-10-7-5-7-7---7--|--7--x-x-|-7---7---7-|
C|------------------|------------------|------------------|-----------------|---------|-----------|   

d|-------------|----------|-----------|
A|-------------|----------|-----------|
F|-------------|----------|-----------|
C|--x-x-8---10-|--8---10--|-8-----8*~-|
G|--x-x-7---7--|--7---7---|-7---------|
C|-------------|----------|-----------| 

I've given you everything and I've battled with gravity
And I have counted to infinity
And I've stared into the sun -- took all its beams away
And I gave them all to you, and that's why the sun turned gray
And now there's nothing left that I can give you
But another sober day


[Interlude] (2:57)

Distorted Guitar 1

d|------------------|------------------|
A|------------------|------------------|
F|------------------|------------------| 20x
C|-0-0-0------0-0---|-0-0-0------0-0---|
G|-1-1-1------1-1---|-1-1-1------1-1---|
C|-2-2-2------2-2---|-2-2-2------2-2---|
PM |---|      |-|     |---|      |-|

Distorted Guitar 2 (3:13)

d|---------------------------|
A|---------------------------|
F|---------------------------| 27x
C|-------5----------------5b-|
G|-7--7----7--5-7--5-7--5----|
C|---------------------------|

Harmony Guitar 1 (3:52)

d|---------|---------|--------|--------|---------|---------|--------|--------|     |---------|
A|---------|---------|--------|--------|---------|---------|--------|--------|     |---------|
F|---------|---------|--------|--------|---------|---------|--------|--------| 2x  |---------|
C|---------|---------|--------|--------|---------|---------|--------|--------|     |---------|
G|---------|---------|--------|--------|---------|---------|--------|--------|     |---------|
C|-9----5--|-7----0--|-2------|--------|-9----5--|-7---0---|-2------|--------|     |-2---2---|

d|---------|---------|--------|--------|---------|---------|--------|--------|
A|---------|---------|--------|--------|---------|---------|--------|--------|
F|---------|---------|--------|--------|---------|---------|--------|--------|
C|---------|---------|--------|--------|---------|---------|--------|--------|
G|---------|---------|--------|--------|---------|---------|--------|--------|
C|-5-------|-0-------|-2------|-2------|-5-------|-0---0---|-2------|-2--2-2-|

d|---------|---------|--------|--------|---------|---------|--------|
A|---------|---------|--------|--------|---------|---------|--------|
F|---------|---------|--------|--------|---------|---------|--------|
C|---------|---------|--------|--------|---------|---------|--------|
G|---------|---------|--------|--------|---------|---------|--------|
C|-5-------|-0-------|-2------|-2------|-5-------|-0---0---|--2-----|

Harmony Guitar 2 (4:05)

d|---------|---------|--------|--------|---------|---------|--------|--------|
A|---------|---------|--------|--------|---------|---------|--------|--------|
F|---------|---------|--------|--------|---------|---------|--------|--------|
C|-9----5--|-7---0---|-2------|--------|-9----5--|-7----0--|-2------|--------|
G|---------|---------|--------|--------|---------|---------|--------|--------|
C|---------|---------|--------|--------|---------|---------|--------|--------|

d|---------|---------|--------|--------|---------|---------|--------|--------|
A|---------|---------|--------|--------|---------|---------|--------|--------|
F|---------|---------|--------|--------|---------|---------|--------|--------|
C|-9----5--|-7---7---|-6------|----6-6-|-5-------|-7-------|-6------|-6------|
G|---------|---------|--------|--------|---------|---------|--------|--------|
C|---------|---------|--------|--------|---------|---------|--------|--------|

d|---------|---------|--------|--------|---------|---------|--------|--------|--------|--------|--------|
A|---------|---------|--------|--------|---------|---------|--------|--------|--------|--------|--------|
F|-5-------|-7---7---|-6------|-6--6-6-|---------|---------|--------|--------|--------|--------|--------|
C|---------|---------|--------|--------|-5-------|-7-------|-6------|-6------|-5------|-7------|-6------|
G|---------|---------|--------|--------|---------|---------|--------|--------|--------|--------|--------|
C|---------|---------|--------|--------|---------|---------|--------|--------|--------|--------|--------|

Synth (3:53)

d|-10--10-10-|-9---9--9--|-7------|--------|-10--10-12-|-9---9--9--|-7------|--------|     |----7-7-|
A|-12--12-12-|-10--10-10-|-9------|--------|-12--12----|-10--10-10-|-9------|--------|     |----9-9-|
F|-----------|-----------|--------|--------|-----------|-----------|--------|--------| 2x  |--------|
C|-----------|-----------|--------|--------|-----------|-----------|--------|--------|     |--------|
G|-----------|-----------|--------|--------|-----------|-----------|--------|--------|     |--------|
C|-----------|-----------|--------|--------|-----------|-----------|--------|--------|     |--------|

d|-10--10-10-|-9---9--9--|-7--10---|-12----|-10--10-12-|-9---9--9--|-7---16-17-19-16---------|
A|-12--12-12-|-10--10-10-|-9-------|-------|-12--12----|-10--10-10-|-9----------------17--15-|
F|-----------|-----------|-------7-|-------|-----------|-----------|-------------------------|
C|-----------|-----------|---------|-------|-----------|-----------|-------------------------|
G|-----------|-----------|---------|-------|-----------|-----------|-------------------------|
C|-----------|-----------|---------|-------|-----------|-----------|-------------------------|

d|------16-17-19-22--19-17--|-15-----|-17-----|-16-----|
A|-17-----------------------|--------|--------|--------|
F|--------------------------|--------|--------|--------|
C|--------------------------|--------|--------|--------|
G|--------------------------|--------|--------|--------|
G|--------------------------|--------|--------|--------|

Sober day (3x)


------------------------------------------------------------------------------------------------------

                        Surgery (5:41)

[Breakdown 2] (5:41)

Distorted Guitars 1 + 2

d|-----------|--------|-------------------|------------|--------------|      |-----------------|
A|-----------|--------|-------------------|------------|------------0-|      |-----------------|
F|-----------|--------|-------------------|------------|------------0-| 2x   |-----------------|
C|-7--8-7--5-|-2------|-5--5--2--5--5--2--|-5--5-------|--------0-1-0-|      |-7--8-7--5-2-----|
G|-7--8-7--5-|-2------|-5--5--2--5--5--2--|-5--5-------|--------------|      |-7--8-7--5-2-----|
C|-7--8-7--5-|-2------|-5--5--2--5--5--2--|-5--5-2-----|--0-1-2-------|      |-7--8-7--5-2-----|

Harmony Guitar 1 (5:59)

d|-0------|-2------2-|-----0-----|-0h2-2-2/3-3-3/5-5-5/7--|
A|-0------|-3----3---|-3/5-0-----|------------------------|
F|--------|----2-----|-----------|------------------------| 6x
C|--------|----------|-----------|------------------------|
G|--------|----------|-----------|------------------------|
C|--------|----------|-----------|------------------------|

Harmony Guitar 2 (6:07)

d|------|------|-2---3---|-3/5-5-5/7-7-7/8-8-8\7-7-|-7~---|-7-5--|-5-7--|-7/8-8-8\7-7-7\5-5-5/7-7-|
A|------|------|-----5---|-------------------------|------|------|------|-------------------------|
F|------|------|---------|-------------------------|------|------|------|-------------------------|
C|------|------|---------|-------------------------|------|------|------|-------------------------|
G|------|------|---------|-------------------------|------|------|------|-------------------------|
C|------|------|---------|-------------------------|------|------|------|-------------------------|

d|-7~---|-7-5--|-5-7--|-7/8-8-8/10-10-10/12-12-12~-|-12---|-12-14--|-15p14-12--|
A|------|------|------|----------------------------|------|--------|-----------|
F|------|------|------|----------------------------|------|--------|-----------|
C|------|------|------|----------------------------|------|--------|-----------|
G|------|------|------|----------------------------|------|--------|-----------|
C|------|------|------|----------------------------|------|--------|-----------|

d|-12\10-10-10\7-7-7\5-5-5/3-3-|-3~---|-3-2--|-2-3--|-3/5-5-5/7-7-7/8-8-8\7-7-|-7~-----|
A|-----------------------------|------|------|------|-------------------------|--------|
F|-----------------------------|------|------|------|-------------------------|--------|
C|-----------------------------|------|------|------|-------------------------|--------|
G|-----------------------------|------|------|------|-------------------------|--------|
C|-----------------------------|------|------|------|-------------------------|--------|

Synth (6:15)

d|-------|-----------|-------|----------------------|
A|-------|-----------|-------|----------------------|
F|-------|-----------|-------|----------------------| 4x
C|-------|-5--7--7p5-|-------|----------5-7--8-7--5-|
G|-5h7---|-----------|-7~----|-5h6h7-5h6------------|
C|-------|-----------|-------|----------------------|

Distorted Guitar 1 (6:32)

d|-------|---------|-------|------|-------|--------|-------|------|-------|
A|-------|---------|-------|------|-------|--------|-------|------|-------|
F|-------|---------|-------|------|-------|--------|-------|------|-------|
C|-------|---------|-------|------|-------|--------|-------|------|-------|
G|-5h7---|-5---4---|-3-2---|----5-|-5h7---|-5---4--|-3-2---|----5-|-5h7\--|
C|-------|---------|-------|------|-------|--------|-------|------|-------|

Pain


------------------------------------------------------------------------------------------------------

                        Recovery (6:52)


[Outro] (6:52)

Synth (7:06)

d|---------------------------|-------------------------|---------------------------|---------------------|
A|---------------------------|-------------------------|---------------------------|---------------------|
F|---------------------------|-------------------------|---------------------------|---------------------| 7x
C|-------5----------------5b-|-------5-----------------|-------5----------------5b-|-------5-------------|
G|-7--7----7--5-7--5-7--5----|-7--7----7--5-7--5-7--5--|-7--7----7--5-7--5-7--5----|-7--7----7--5-7--5-7-|
C|---------------------------|-------------------------|---------------------------|---------------------|

d|---------------------------|-------------------------|----------------------------|
A|---------------------------|-------------------------|----------------------------|
F|---------------------------|-------------------------|----------------------------|
C|-------5----------------5b-|-------5-----------------|-------5----------------5b--|
G|-7--7----7--5-7--5-7--5----|-7--7----7--5-7--5-7--5--|-7--7----7--5-7--5-7--5-----|
C|---------------------------|-------------------------|----------------------------|

d|----------|
A|----------|
F|----------| (Repeat until end of song)
C|-2--------|
G|----------|
C|-2--------|

Piano (7:34)

d|-------|-------|-------|-------|-10----|-9-----|-7-----|-------|
A|-12----|-10----|-9-----|-------|-12----|-10----|-9-----|-------|
F|-------|-------|-------|-------|-------|-------|-------|-------| 3x
C|-------|-------|-------|-------|-------|-------|-------|-------|
G|-------|-------|-------|-------|-------|-------|-------|-------|
C|-------|-------|-------|-------|-------|-------|-------|-------|

Slowly putting every piece back together
Trying to make it just a little better than it was
And no one knows what's going on with me
So I suppose it's all on me to save myself and us

Slowly putting every piece back together
Trying to make it just a little better than it was
And oh, you could never reap what you sow
So I suppose it's all on me to save myself and us

Slowly putting every piece back together
Trying to make it just a little better than it was
And oh, you could never reap what you sow

Slowly putting every piece back together...


This was an extremely fun one to tab out. As always, message me/comment if you have any revisions.

            
            
Suggest correction
Creating personal tab
Creating personal tab
You can edit any tab online and save it as your Personal.

You can edit, replace or remove any tab part or add personal notes – all changes will be seen only by you.

Personal tabs can be accessed anytime from any device, even offline.
Learn more »
Give kudos to tab author, rate the tab!
1 2 3 4 5
comments
print report bad tab
guest
You may want to rate the tab now too:
select rating
Wanna post a correction for this tab? Suggest correction