Oops, an error
Loading. Please wait.

Wrong Cells tab

22 views 1 this week
no commentswrite comment
1 2 3 4 5
3 more votes to show rating
add to favorites
×
Save as Personal and add changes to this tab that will be seen only by you. Learn more ›
×
You can save this tab as Personal to edit and correct it or add notes. All changes will be seen only by you. Learn more »
launch autoscroll
font size
0
reset
how to read this tab
guitar tuner
edit
Autoscroll
slow
fast
+/-
esc
set tempo
stop
Artist - Pregnant Whale Pain
Album - Pregnant Whale Pain
Song - Wrong Cells
Tabbed By - Basher89

All Guitars - Drop C (C G C F A D)

BPM - 132

b - Bend
r - Release
PM - Palm Mute
/ - Slide Up
\ - Slide Down
h - Hammer On
p - Pull Off
~ - Vibrato
x - Mute
+ - Natural Harmonic
N  - Tremolo


[Intro] (0:00)

Guitar 1

d|--------------|
A|--------------|
F|--------------|
C|--------------|
G|-9b---7--8~---|
C|--------------|

d|-------------------|------------------|
A|-------------------|------------------|
F|-------------------|------------------| 4x
C|-------------------|------------------|
G|-------------------|------------------|
C|-4b---2--3---1--0--|-4b--2--3---1--0--|

d|---------------------|---------------------|
A|---------------------|---------------------|
F|---------------------|---------------------| 4x
C|------2--3--2--1--0--|------2--3--2--1--0--|
G|------2--3--2--1--0--|------2--3--2--1--0--|
C|-4b---2--3--2--1--0--|--4b--2--3--2--1--0--|
PM      |-----------|         |-----------|

Guitar 2

d|-------------------|------------------|
A|-------------------|------------------|
F|-------------------|------------------| 2x
C|-------------------|------------------|
G|-------------------|------------------|
C|-4b---2--3---1--0--|-4b--2--3---1--0--|

d|------5-----5--------|
A|---------------------|
F|-7b------7-----7r~---|
C|---------------------|
G|---------------------|
C|---------------------|


[Verse] (0:20)

Guitars 1 + 2

d|---------------------|----------------------|
A|---------------------|----------------------|
F|---------------------|----------------------| 2x
C|------2--3--2--1--0--|-------2--3--2--1--0--|
G|------2--3--2--1--0--|-------2--3--2--1--0--|
C|-4b---2--3--2--1--0--|--4b---2--3--2--1--0--|
PM      |-----------|          |-----------|

Guitar 1

d|---------------------|----------------------|
A|---------------------|----------------------|
F|---------------------|----------------------| 2x
C|------2--3--2--1--0--|-------2--3--2--1--0--|
G|------2--3--2--1--0--|-------2--3--2--1--0--|
C|-4b---2--3--2--1--0--|--4b---2--3--2--1--0--|
PM      |-----------|          |-----------|

Guitar 2

d|---------------------|
A|---------------------|
F|---------------------|
C|------7-----7--------|
G|-5b------5-----5r~---|
C|---------------------|

Guitars 1 + 2

d|---------------------|----------------------|
A|---------------------|----------------------|
F|---------------------|----------------------| 8x
C|------2--3--2--1--0--|-------2--3--2--1--0--|
G|------2--3--2--1--0--|-------2--3--2--1--0--|
C|-4b---2--3--2--1--0--|--4b---2--3--2--1--0--|
PM      |-----------|          |-----------|

d|---------------------|----------------------|
A|---------------------|----------------------|
F|---------------------|----------------------| 2x
C|------3--4--3--2--1--|-------3--4--3--2--1--|
G|-4b---3--4--3--2--1--|--4b---3--4--3--2--1--|
C|------3--4--3--2--1--|-------3--4--3--2--1--|
PM      |-----------|          |-----------|

d|---------------------|----------------------|---------------------|-----------------------|
A|---------------------|----------------------|---------------------|-----------------------|
F|---------------------|----------------------|---------------------|-----------------------|
C|------2--3--2--1--0--|-------2--3--2--1--0--|------2--3--2--1--0--|-----------------------|
G|------2--3--2--1--0--|-------2--3--2--1--0--|------2--3--2--1--0--|-----------3-----------|
C|-4b---2--3--2--1--0--|--4b---2--3--2--1--0--|-4b---2--3--2--1--0--|--0--4--0-----3--3--3--|
PM      |-----------|          |-----------|         |-----------------|


To free your head from the woes
To maintain your state of mind
To peel your hair from the brush
To ignore pitiful eyes
These are some of the things that you'll have to embrace
I'm not sure if we should talk about the things that
Make it worth to stay
You can't take us away from her


[Chorus] (1:30)

Guitars 1 + 2

d|------------------|-----------------------|--------------------|---------------------|
A|-7----7--7--7--7--|--7--7-7--7-7-7--7--7--|--------------------|---------------------|
F|-0----0--0--0--0--|--0--0-0--0-0-0--0--0--|-9---9--9--9--9--4--|--4--4---4--4--4--4--| 2x
C|-5----6--6--6--5--|--7--7-7--7-7-7--7--7--|-9---9--9--9--9--7--|--7--7---7--7--7--7--|
G|------------------|-----------------------|-7---7--7--7--7--5--|--5--5---5--5--5--5--|
C|------------------|-----------------------|--------------------|---------------------|

Guitar 1

d|--------------------|------------------|
A|--------------------|------------------|
F|-11--11-10-10-9--9--|--9---9---9---8---| 2x
C|-11--11-10-10-9--9--|--9---9---9---9---|
G|-9---9--8--8--7--7--|--7---7---7---6---|
C|--------------------|------------------|

d|--------------------|---------------------|--------------|---------------------|
A|--------------------|---------------------|--------------|---------------------|
F|-11--11-10-10-9--9--|--9---9---9---8--7-7-|-7------------|---------------------|
C|-11--11-10-10-9--9--|--9---9---9---9--7-7-|-7------------|---------------------|
G|-9---9--8--8--7--7--|--7---7---7---6--5-5-|-5------------|-----9b---7--8~--7b--|
C|--------------------|---------------------|--------------|---------------------|

Guitar 2

d|------5-----5-----------|
A|------------------------|
F|-8b------8-----8r~------| 3x
C|------------------------|
G|------------------------|
C|------------------------|


I can feel it inside (of me)


[Pre-Verse] (2:07)

Guitar 1

d|-------------------|------------------|
A|-------------------|------------------|
F|-------------------|------------------| 4x
C|-------------------|------------------|
G|-------------------|------------------|
C|-4b---2--3---1--0--|-4b--2--3---1--0--|

Guitar 2

d|-------------------|------------------|
A|-------------------|------------------|
F|-------------------|------------------| 2x
C|-------------------|------------------|
G|-------------------|------------------|
C|-4b---2--3---1--0--|-4b--2--3---1--0--|

d|-------17------17--------|--22p17-22p17-22p17h19--22p17-|-22p17-22p15h16p15-21p14-22p13-21p12-19p11-17p10-|
A|-------------------------|------------------------------|-------------------------------------------------|
F|-19b-------19------19r~--|------------------------------|-------------------------------------------------|
C|-------------------------|------------------------------|-------------------------------------------------|
G|-------------------------|------------------------------|-------------------------------------------------|
C|-------------------------|------------------------------|-------------------------------------------------|

d|-15p9h10-14p8h9-13p6h7-12p6p5p4p3------------|
A|---------------------------------------------|
F|---------------------------------------------|
C|---------------------------------------------|
G|---------------------------------------------|
C|----------------------------------3b---1--0--|


[Verse 2] (2:24)

Guitars 1 + 2

d|---------------------|----------------------|
A|---------------------|----------------------|
F|---------------------|----------------------| 8x
C|------2--3--2--1--0--|-------2--3--2--1--0--|
G|------2--3--2--1--0--|-------2--3--2--1--0--|
C|-4b---2--3--2--1--0--|--4b---2--3--2--1--0--|
PM      |-----------|          |-----------|

d|---------------------|---------------|---------------------|----------------------|
A|---------------------|---------------|---------------------|----------------------|
F|---------------------|---------------|---------------------|----------------------|
C|------3--4--3--2--1--|-------3--4----|------3--4--3--2--1--|-------3--4--3--2--1--|
G|-4b---3--4--3--2--1--|--4b---3--4----|-4b---3--4--3--2--1--|--4b---3--4--3--2--1--|
C|------3--4--3--2--1--|-------3--4----|------3--4--3--2--1--|-------3--4--3--2--1--|
PM      |-----------|          |--|           |-----------|          |-----------|

d|---------------------|----------------------|---------------------|-----------------------|
A|---------------------|----------------------|---------------------|-----------------------|
F|---------------------|----------------------|---------------------|-----------------------|
C|------2--3--2--1--0--|-------2--3--2--1--0--|------2--3--2--1--0--|-----------------------|
G|------2--3--2--1--0--|-------2--3--2--1--0--|------2--3--2--1--0--|-----------3-----------|
C|-4b---2--3--2--1--0--|--4b---2--3--2--1--0--|-4b---2--3--2--1--0--|--0--4--0-----3--3--3--|
PM      |-----------|          |-----------|         |-----------------|


To meet those I fear to lose
To act like all is the same
To be careful whom to choose
I won't hold their hands again
These are some of the things that I'll have to embrace
I'm not sure if I should think about the things that
Make it worth to stay
You can't take me away from them


[Chorus] (3:17)

Guitars 1 + 2

d|------------------|-----------------------|--------------------|---------------------|
A|-7----7--7--7--7--|--7--7-7--7-7-7--7--7--|--------------------|---------------------|
F|-0----0--0--0--0--|--0--0-0--0-0-0--0--0--|-9---9--9--9--9--4--|--4--4---4--4--4--4--| 2x
C|-5----6--6--6--5--|--7--7-7--7-7-7--7--7--|-9---9--9--9--9--7--|--7--7---7--7--7--7--|
G|------------------|-----------------------|-7---7--7--7--7--5--|--5--5---5--5--5--5--|
C|------------------|-----------------------|--------------------|---------------------|


I can feel it inside (of me)


[Solo] (3:34)

Guitar 1

d|--------------------|------------------|
A|--------------------|------------------|
F|-11--11-10-10-9--9--|--9---9---9---8---| 6x
C|-11--11-10-10-9--9--|--9---9---9---9---|
G|-9---9--8--8--7--7--|--7---7---7---6---|
C|--------------------|------------------|

d|--------------------|---------------------|--------------|
A|--------------------|---------------------|--------------|
F|-11--11-10-10-9--9--|--9---9---9---8--7-7-|-7------------|
C|-11--11-10-10-9--9--|--9---9---9---9--7-7-|-7------------|
G|-9---9--8--8--7--7--|--7---7---7---6--5-5-|-5------------|
C|--------------------|---------------------|--------------|

Guitar 2

*The solo is a very sloppy one, and this is merely an outline*

d|-7+N----|------|------------|-----------------|---------------14-16-16/18-18-18b-|
A|-7+N----|------|------------|-----------------|--------14h16---------------------|
F|-7+N----|------|------------|----13-15--15/16-|--13h15---------------------------|
C|--------|------|--------13b~|-15--------------|----------------------------------|
G|--------|------|-4p1--------|-----------------|----------------------------------|
C|--------|------|-----4------|-----------------|----------------------------------|

d|-18p16p14h16-18p16p14h-|-16--21t--16h18--16p14----14h16p14----|-14h16h18p16p14----|
A|-----------------------|-----------------------16----------16-|----------------16-|
F|-----------------------|--------------------------------------|-------------------|
C|-----------------------|--------------------------------------|-------------------|
G|-----------------------|--------------------------------------|-------------------|
C|-----------------------|--------------------------------------|-------------------|
   (Noodle around with this whole phrase)

d|-18p16p14-11h14p11-|-----------------------------------------|
A|-------------------|-13p11-----------------------------------|
F|-------------------|-------13p11h13h15-15~--13---------------|
C|-------------------|---------------------------15p13-15-15~--|
G|-------------------|-----------------------------------------|
C|-------------------|-----------------------------------------|

d|----------14h18p14----------------------|---------------------------|
A|----------------------------------------|---------------------------|
F|-------------------------13h15p13-------|---------------------------|
C|-13h15p13----------15p13----------15p13-|---------------------------|
G|----------------------------------------|-15p13p11-8~---------------|
C|----------------------------------------|-------------5~-3~-/10\-0--|


[Outro] (4:09)

Guitar 1

d|-----------------|-----------------|-------------------|
A|-7-----7-----7---|---7-----7-7-7-7-|-7------7-----7----|
F|-0-----0-----0---|---0-----0-0-0-0-|-0------0-----0----|
C|-5-----5-----5---|---5-----6-6-6-6-|-5------5-----6----|
G|-----------------|-----------------|-------------------|
C|---0-0---0-0---0-|-0---0-0---------|---0-0----0-0------|
PM   |-|   |-|   |---|   |-|             |-|    |-|

d|-----------------|-----------------|----------------------|
A|-7-----7-----7---|---7-----7-7-7-7-|-7------7-----7---7---|
F|-0-----0-----0---|---0-----0-0-0-0-|-0------0-----0---0---| 2x
C|-5-----5-----5---|---5-----6-6-6-6-|-5------5-----5---6---|
G|-----------------|-----------------|----------------------|
C|---0-0---0-0---0-|-0---0-0---------|---0-0----0-0---0---0-|
PM   |-|   |-|   |---|   |-|             |-|    |-|   |   |

d|-----------------|-----------------|----------------------|
A|-7-----7-----7---|---7-----7-7-7-7-|-7------7-----7---7-7-|
F|-0-----0-----0---|---0-----0-0-0-0-|-0------0-----0---0-0-|
C|-5-----5-----5---|---5-----6-6-6-6-|-5------5-----5---6-6-|
G|-----------------|-----------------|----------------------|
C|---0-0---0-0---0-|-0---0-0---------|---0-0----0-0---0-----|

d|-----------------|-----------------|----------------------|---------|
A|-7-----7-----7---|---7-----7-7-7-7-|-7------7-----7---7---|-7-------|
F|-0-----0-----0---|---0-----0-0-0-0-|-0------0-----0---0---|-0-------|
C|-5-----5-----5---|---5-----6-6-6-6-|-5------5-----5---6---|-5-------|
G|-----------------|-----------------|----------------------|-0-------|
C|---0-0---0-0---0-|-0---0-0---------|---0-0----0-0---0---0-|-0-------|

Guitar 2

d|-----------------|-----------------|----------------------|
A|-7-----7-----7---|---7-----7-7-7-7-|-7------7-----7---7---|
F|-0-----0-----0---|---0-----0-0-0-0-|-0------0-----0---0---| 2x
C|-5-----5-----5---|---5-----6-6-6-6-|-5------5-----5---5---|
G|-----------------|-----------------|----------------------|
C|---0-0---0-0---0-|-0---0-0---------|---0-0----0-0---0---0-|
PM   |-|   |-|   |---|   |-|             |-|    |-|   |   |

d|-----------------|-----------------|----------------------|
A|-7-----7-----7---|---7-----7-7-7-7-|-7------7-----7---7-7-|
F|-0-----0-----0---|---0-----0-0-0-0-|-0------0-----0---0-0-|
C|-5-----5-----5---|---5-----6-6-6-6-|-5------5-----5---5-5-|
G|-----------------|-----------------|----------------------|
C|---0-0---0-0---0-|-0---0-0---------|---0-0----0-0---0-----|

d|-----------------|-----------------|----------------------|---------|
A|-7-----7-----7---|---7-----7-7-7-7-|-7------7-----7---7---|-7-------|
F|-0-----0-----0---|---0-----0-0-0-0-|-0------0-----0---0---|-0-------|
C|-5-----5-----5---|---5-----5-5-5-5-|-5------5-----5---5---|-6-------|
G|-----------------|-----------------|----------------------|-0-------|
C|---0-0---0-0---0-|-0---0-0---------|---0-0----0-0---0---0-|-0-------|


I will destroy you
'Til there's nothing left of you

*************************************
|b     Bend
|r     Release
|PM    Palm Mute
|/     Slide Up
|\     Slide Down
|h     Hammer On
|p     Pull Off
|~     Vibrato
|x     Mute
|+     Natural Harmonic
|N     Tremolo
*************************************
Suggest correction
Creating personal tab
Creating personal tab
You can edit any tab online and save it as your Personal.

You can edit, replace or remove any tab part or add personal notes – all changes will be seen only by you.

Personal tabs can be accessed anytime from any device, even offline.
Learn more »
Give kudos to tab author, rate the tab!
1 2 3 4 5
comments
print report bad tab
guest
You may want to rate the tab now too:
select rating
Wanna post a correction for this tab? Suggest correction