Oops, an error
Loading. Please wait.

Orange Sky tab

22 views 3 this week
no commentswrite comment
1 2 3 4 5
2 more votes to show rating
add to favorites
×
Save as Personal and add changes to this tab that will be seen only by you. Learn more ›
×
You can save this tab as Personal to edit and correct it or add notes. All changes will be seen only by you. Learn more »
launch autoscroll
font size
0
reset
how to read this tab
guitar tuner
edit
Autoscroll
slow
fast
+/-
esc
set tempo
stop
Author
Difficulty
[Intro]
e|---------------------------------------------------------------------------|
B|---------------------------------------------------------------------------|
G|-------------------------------------------2-3-5-5------2-3-5-5-5-5-5-5----|
D|--------3-3--1-1------------------1-1--------------------------------------|  (x3) (grace note
A|-0g-1-1----------4-4--0-0-----3-3------4-4---------4-4---------------------|       first time only)
E|--------------------------1-1----------------------------------------------|

(4th time)                                                 (G2)
e|--------------------------------------------------------|------------------|
B|--------------------------------------------------------|------------------|
G|----------------------------------------2-3-5-5--3/5/6--|------------------|
D|-----3-3--1-1------------------1-1----------------------|------------------|
A|-1-1----------4-4--0-0-----3-3------4-4-----------------|--1/4/1-----------|
E|-----------------------1-1------------------------------|------------------|

[Verse 1] (x2)
e|-----------------------------------------------------------------------13--|
B|---------------------------------------------------------------11-11/14----|
G|-------10----------------10----------------10--------------/10-------------|
D|----11----11---11------11---11---11-----11----11---11---11-----------------|
A|-13---------13------12--------12-----11---------11-------------------------|
E|---------------------------------------------------------------------------|

e|---------------------------------------------------------------------------|
B|---------------------------------------------------------------------------|
G|-------10----------------10----------------10-----------------10-----------| 
D|----11----11---11------11---11---11-----11----11---11------11----11---11---|
A|-13---------13------12--------12-----11---------11------10---------10------|
E|---------------------------------------------------------------------------|

[Chorus]
e|--------------|--------------|--------------|-------9-6-----------|
B|--------------|--------------|--------------|-9-6-----------------|
G|-------8-6----|-------8-6----|-------8-6----|-----8---------------|
D|-8-6-------8--|-8-6-------8--|-8-6-------8--|---------------------|
A|-----8--------|-----8--------|-----8--------|---------------------|
E|--------------|--------------|--------------|---------------------|

e|---------11-9-|---------11-9-|---------11-9-|-16-13-11-21-18------|
B|-11-9---------|-11-9---------|-11-9---------|---------------------|
G|------10------|------10------|------10------|---------------------|
D|--------------|--------------|--------------|---------------------|
A|--------------|--------------|--------------|---------------------|
E|--------------|--------------|--------------|---------------------|

[Solo] 
(1:20-1:27)
e|-16-18-16---------------------------------------------------------|
B|----------16~ --16-18-16-14----14----------14---------------------|
G|----------------------------15----15-13-15----15-13---------------|
D|------------------------------------------------------------------|
A|------------------------------------------------------------------|
E|------------------------------------------------------------------|

e|------------------------------------------------------------------|
B|----11------------------------------------------------------------|
G|-13----13-10----10------------------------------------------------|
D|-------------13----13-11~ ----------------------------------------|
A|------------------------------------------------------------------|
E|------------------------------------------------------------------|

[Verse 2]
e|---------------------------------------------------------------------------|
B|---------------------------------------------------------------------------|
G|-------10----------------10----------------10-----------------10-----------| 
D|----11----11---11------11---11---11-----11----11---11------11----11---11---|
A|-13---------13------12--------12-----11---------11------10---------10------|
E|---------------------------------------------------------------------------|

e|-----------------------------------------------------------------------13--|
B|---------------------------------------------------------------11-11/14----|
G|-------10----------------10----------------10--------------/10-------------|
D|----11----11---11------11---11---11-----11----11---11---11-----------------|
A|-13---------13------12--------12-----11---------11-------------------------|
E|---------------------------------------------------------------------------|

e|---------------------------------------------------------------------------|
B|---------------------------------------------------------------------------|
G|-------10----------------10----------------10-----------------10-----------| 
D|----11----11---11------11---11---11-----11----11---11------11----11---11---|
A|-13---------13------12--------12-----11---------11------10---------10------|
E|---------------------------------------------------------------------------|

[Chorus]
e|--------------|--------------|--------------|-------9-6-----------|
B|--------------|--------------|--------------|-9-6-----------------|
G|-------8-6----|-------8-6----|-------8-6----|-----8---------------|
D|-8-6-------8--|-8-6-------8--|-8-6-------8--|---------------------|
A|-----8--------|-----8--------|-----8--------|---------------------|
E|--------------|--------------|--------------|---------------------|

e|---------11-9-|---------11-9-|---------11-9-|-16-13-11-21-18~ ----|
B|-11-9---------|-11-9---------|-11-9---------|---------------------|
G|------10------|------10------|------10------|---------------------|
D|--------------|--------------|--------------|---------------------|
A|--------------|--------------|--------------|---------------------|
E|--------------|--------------|--------------|---------------------|

[Solo] 
(2:17)
e|-11-9---------------------------------------------------------------|
B|------11-----------------------------/9-9-9--/11--------------------|
G|---------------------3-3-3--/6-6-6----------------------------------|
D|--------------------------------------------------------------------|
A|-----------1-4-1----------------------------------------------------|
E|-----------------4--------------------------------------------------|

e|----------9--------------------13-----------------------------17/18-|
B|-11-10-11---11-10-11--14-13-14----14-13-14--18-18-18-16-18-18-------|
G|--------------------------------------------------------------------|
D|--------------------------------------------------------------------|
A|--------------------------------------------------------------------|
E|--------------------------------------------------------------------|

e|-18-17-17-17-17--16-16-16-16--15-15-15-15--14-14-14-14--13-13-11-11-------------|
B|--------------------------------------------------------------------14-14-13-11-|
G|--------------------------------------------------------------------------------|
D|--------------------------------------------------------------------------------|
A|--------------------------------------------------------------------------------|
E|--------------------------------------------------------------------------------|

e|--------------|--------------|--------------|--------------|--------------|
B|-14-11----11--|-14-11----11--|-14-11----11--|-14-11----11--|-14-11----11--|
G|-------14-----|-------14-----|-------14-----|-------14-----|-------14-----|
D|--------------|--------------|--------------|--------------|--------------|
A|--------------|--------------|--------------|--------------|--------------|
E|--------------|--------------|--------------|--------------|--------------|

e|----------------|---------------------|----------------------------|
B|-14-11-14-16/18-|---------------------|----------------------------|
G|----------------|---------------------|----------------------------|
D|----------------|-8-6-----------------|-8-6------------------------|
A|----------------|-----8-8-6---8-6-----|-----8-8-6---8-6------------|
E|----------------|-----------9-----9-6-|-----------9-----9-6(PAUSE)-|

[Chorus]
e|--------------|--------------|--------------|-------9-6-----------|
B|--------------|--------------|--------------|-9-6-----------------|
G|-------8-6----|-------8-6----|-------8-6----|-----8---------------|
D|-8-6-------8--|-8-6-------8--|-8-6-------8--|---------------------|
A|-----8--------|-----8--------|-----8--------|---------------------|
E|--------------|--------------|--------------|---------------------|

e|---------11-9-|---------11-9-|---------11-9-|-16-13-11-21-18------|
B|-11-9---------|-11-9---------|-11-9---------|---------------------|
G|------10------|------10------|------10------|---------------------|
D|--------------|--------------|--------------|---------------------|
A|--------------|--------------|--------------|---------------------|
E|--------------|--------------|--------------|---------------------|

[Outro]
e|-16-13-11---------------------------------------------------------|
B|----------14-11-9-------------------------------------------------|
G|-------------------10-8----------------10-------------------------|
D|-------------------------11-8--------8-11-------------------------|
A|-------------------------------8-11----------13\------------------|
E|------------------------------------------------------------------|


************************************

| g   Grace note
| /   Slide up
| \   Slide down
| ~   Vibrato

************************************

            
            
Suggest correction
Creating personal tab
Creating personal tab
You can edit any tab online and save it as your Personal.

You can edit, replace or remove any tab part or add personal notes – all changes will be seen only by you.

Personal tabs can be accessed anytime from any device, even offline.
Learn more »
Give kudos to tab author, rate the tab!
1 2 3 4 5
comments
print report bad tab
guest
You may want to rate the tab now too:
select rating
Wanna post a correction for this tab? Suggest correction