Oops, an error
Loading. Please wait.

That Much Better Tab

244 views 1 this week
no commentswrite comment
1 2 3 4 5
2 more votes to show rating
add to favorites
launch autoscroll
font size
0
reset
how to read this tab
guitar tuner
Autoscroll
slow
fast
+/-
esc
set tempo
stop
Help us to improve Ultimate-Guitar.com Take our survey!
×
Author
Artist: PRESSIVE
Song: That Much Better

Tabbed by: javo_rockstar

Mail: javo_rockstar@hotmail.com

tuning
gtr.1 Javo (low to high) B,F#,b,f#,f#,C#
gtr.2 Leo (low to high) B,F#,b,E,G#,C#

Intro 00:00 - 00:07
(distor with some weird filter)
||---------------------------------||
||---------------------------------||
||---------------------------------|| x2
||---------------------------------||
||---------------------------------||
||--00-00-00-xxxxxx20000022223333--||

Intro 00:07 - 00:21
(almost the same as the first intro riff, but now with common
distor for both guitars)
gtr.1 Javo
||---------------------------------||
||---------------------------------||
||---------------------------------|| x4
||---------------------------------||
||---------------------------------||
||--00-00-00-xxxxxx20000022223333--||

gtr.2 Leo
||---------------------------------||
||---------------------------------||
||---------------------------------|| x4
||---------------------------------||
||---------------------------------||
||--00-00-00-xxxxxx20000022223333--||

Intro 00:21 - 00:36 (play 3 times then change the
last notes on the last 4 time)
gtr.1 Javo
||----------------------------------|--|
||----------------------------------|--|
||----------------------------------|--| x3
||--0---0-0-3-0-0-2--0-0-0-3-0-2-3--|--|
||--0---0-0-3-0-0-2--0-0-0-3-0-2-3--|--|
||--0---0-0-3-0-0-2--0-0-0-3-0-2-3--|--|
pm      . .     .      . .

gtr.2 Leo
||----------------------------------|--|
||----------------------------------|--|
||----------------------------------|--| x3
||--0---0-0-3-0-0-2--0-0-0-3-0-2-3--|--|
||--0---0-0-3-0-0-2--0-0-0-3-0-2-3--|--|
||--0---0-0-3-0-0-2--0-0-0-3-0-2-3--|--|
pm      . .     .      . .


intro 00:32 - 00:36
gtr.1 Javo
--|-----------------------------------||
--|-----------------------------------||
--|-----------------------------------||
--|--0---0-0-3-0-0-2--0-0-0-33335555--||
--|--0---0-0-3-0-0-2--0-0-0-----------||
--|--0---0-0-3-0-0-2--0-0-0-33335555--||
pm       . .     .      . .

gtr.1 Leo
--|-----------------------------------||
--|-----------------------------------||
--|-----------------------------------||
--|--0---0-0-3-0-0-2--0-0-0-----------||
--|--0---0-0-3-0-0-2--0-0-0-----------||
--|--0---0-0-3-0-0-2--0-0-0-33335555--||
pm       . .     .      . .


Verse 00:36 - 01:03 (clean, lightly distorded, w/delay)
gtr.1 Javo
||---------|---------|------------7---------------------|--|
||------8--|------8--|------8-------8-------8--------7--|--|
||----5----|----5----|----5---------------0--------0----|--|
||---------|---------|----------------------------------|--|
||---------|---------|----------------------------------|--|
||--0------|--0------|--0---------------5--------7------|--|

gtr.2 Leo
||---------|---------|----------------------------------|--|
||---------|---------|----------------------------------|--|
||---------|---------|----------------------------------|--|
||---------|---------|----------------------------------|--|
||---------|---------|----------------------------------|--|
||---------|---------|----------------------------------|--|


gtr.1 Javo
------5-----7---------------------||
------8-------8-------8--------4--||
----5-5-------------0--------5----||
----------------------------------||
---------------------------0------||
--0---------------5---------------||

gtr.2 Leo
----------------------------------||
----------------------------------||
----------------------------------||
----------------------------------||
----------------------------------||
----------------------------------||


Pre-chorus 01:04 - 01:11
gtr.1 Javo
||--------------------------||
||--1----0----1----0--------||
||--1----0----1----0--------||
||--3----2----3----2---7^---||
||--1----0----1----0--------||
||--------------------------||

gtr.2 Leo
||--------------------------||
||--------------------------||
||--10---9----10---9--------||
||--8----7----8----7---10^--||
||--8----7----8----7--------||
||--8----7----8----7--------||


Chorus 01:11 - 01:40
gtr.1 Javo
||-----------------------------------------------|
||-----------------------------------------------|
||--8--7--5--3--5-7--8--7--5--3--5-7--8--10--12--|
||-----------------------------------------------|
||--8--7--5--3--5-7--8--7--5--3--5-7--8--10--12--|
||-----------------------------------------------|

gtr.2 Leo
||-----------------------------------------------|
||-----------------------------------------------|
||-----------------------------------------------|
||--0--------8-------10-------7----8-7-0------8--|
||--0--------8-------10-------7----8-7-0------8--|
||--0--------8-------10-------7----8-7-0------8--|


gtr.1 Javo
---------------------||
---------------------||
--13--10--8--7--8-7--||
---------------------||
--13--10--8--7--8-7--||
---------------------||

gtr.2 Leo
---------------------||
---------------------||
---------------------||
--7-------10----11---||
--7-------10----11---||
--7-------10----11---||


Pre-Verse 01:39 - 01:54
gtr.1 Javo
||---------------------------------||
||----------<7>^-------------------||
||---------------------------------|| x4
||--0--3-0--------0--0-0-0--0-0-0--||
||--0--3-0--------0--0-0-0--0-0-0--||
||--0--3-0--------0--0-0-0--0-0-0--||
pm  .             .  . . .  . . .

gtr.2 Leo (repeat 4 times switching 8^ for 5^, 8^, 10^)
||----------------------------------||
||----------------------------------||
||----------------------------------|| x4
||--0--3-0---------0--0-0-0--0-0-0--||
||--0--3-0---8^----0--0-0-0--0-0-0--||
||--0--3-0---------0--0-0-0--0-0-0--||
pm  .              .  . . .  . . .


Verse (repeat) 01:54 - 02:22

Pre-Chorus (repeat) 02:22 - 02:30

Chorus (repeat) 02:30 - 02:58

Bridge 02:58 - 03:08
gtr.1 Javo
||--------------------------------------------------||
||--------------------------------------------------||
||--------------------------------------------------|| x2
||--------------------------------------------------||
||--------------------------------------------------||
||--0--0--0--0--0--0--0000-0-0-0-0-0-0-0-0-0-0-0-0--||
pm  .  .  .  .  .  .  .... . . . . . . . . . . . .

gtr.2 Leo
||--------------------------------------------------||
||--------------------------------------------------||
||--------------------------------------------------|| x2
||--------------------------------------------------||
||--------------------------------------------------||
||--0--0--0--0--0--0--0000-0-0-0-0-0-0-0-0-0-0-0-0--||
pm  .  .  .  .  .  .  .... . . . . . . . . . . . .

03:08 - 03:17
gtr.1 Javo (start opening B string while you are about
to finish)
||--------------------------------------------------||
||--------------------------------------------------||
||--------------------------------------------------|| x2
||--------------------------------------------------||
||----5^-5^-5^--------------------------------------||
||--0--0--0--0--0--0--0000-0-0-0-0-0-0-0-0-0-0-0-0--||
pm  .  .  .  .  .  .  .... . . . . . . . . . . . .

gtr.2 Leo
||--------------------------------------------------||
||--------------------------------------------------||
||--------------------------------------------------|| x2
||--------------------------------------------------||
||--------------------------------------------------||
||--0--0--0--0--0--0--0000-0-0-0-0-0-0-0-0-0-0-0-0--||
pm  .  .  .  .  .  .  .... . . . . . . . . . . . .

03:17 - 03:36
gtr.1 Javo
||------------------------------------------------------|
||------------------------------------------------------|
||------------------------------------------------------|
||----------7--------------7-----------------8----------|
||----5---5---5---5--5---5---5---5---10---10---10---10--|
||--0---0-------0---0--0-------0---8----8---------8-----|

gtr.2 Leo
||------------------------------------------------------|
||------------------------------------------------------|
||------------------------------------------------------|
||----------7--------------7-----------------8----------|
||----5---5---5---5--5---5---5---5---10---10---10---10--|
||--0---0-------0---0--0-------0---8----8---------8-----|

gtr.1 Javo
-------------------||
-------------------||
-------------------|| x2
----------7--------||
----8---8---8---8--||
--7---7-------7----||

gtr.2 Leo
-------------------||
-------------------||
-------------------|| x2
----------7--------||
----8---8---8---8--||
--7---7-------7----||

03:36 - 03:56
gtr.1 Javo
||------------------------------------------------------------||
||------------------------------------------------------------||
||------------------------------------------------------------||x2
||------------------------------------------------------------||
||---12-12-12\10--10-10\8--8-8\7---13-13-13\12---12-12-12\10--||
||-0-----------------------------8-------------7--------------||

gtr.2 Leo
||------------------------------------------------------------||
||------------------------------------------------------------||
||------------------------------------------------------------||x2
||------------------------------------------------------------||
||---8---8--8\7----7--7\5--5-5\3---10-10-10\8----8---8--8\7---||
||-0-----------------------------8-------------7--------------||

03:56 - 04:15
gtr.1 Javo
||-------------------------------------------------|
||-------------------------------------------------|
||-------------------------------------------------|
||--0------3---0-0----3------8---5---7-----3---5---|
||--0------3---0-0----3------8---5---7-----3---5---|
||--0------3---0-0----3------8---5---7-----3---5---|

gtr.2 Leo
||---------------------------------------------------|
||---------------------------------------------------|
||--7//////9//////////10/////15//12//14////10//12//--|
||---------------------------------------------------|
||--5//////7//////////8//////13//10//12////8///10//--|
||---------------------------------------------------|


gtr.1 Javo
-------------------------------------||
-------------------------------------||
-------------------------------------||
--0------3---0-0----3------8---------||
--0------3---0-0----3------8---------||
--0------3---0-0----3------8------7--||

gtr.2 Leo
-------------------------------------||
-------------------------------------||
--7//////10//9/////////////7------6--||
-------------------------------------||
--5//////8///7/////////////5------4--||
-------------------------------------||

Outro 04:15 - 04:20
gtr.1 Javo
||--------------------------------------------------||
||--------------------------------------------------||
||--------------------------------------------------||
||-----3-----3-----3--------------------------------||
||--0--3--0--3--0--3--0000-0-0-0-0-0-0-0-0-0-0-0-0--||
||--0--3--0--3--0--3--0000-0-0-0-0-0-0-0-0-0-0-0-0--||
pm  .     .     .     .... . . . . . . . . . . . .

gtr.2 Leo (trill each octave)
||--------------------------------------------------||
||--------------------------------------------------||
||--------------------------------------------------||
||--------------------------------------------------||
||--------------------------------------------------||
||--------------------------------------------------||

04:20 - 04:32
gtr.1 Javo (add some pitch armonics on the scale)
||--------------------------------------------||
||--------------------------------------------||
||-----------------------------7-8-7---7------|| x3
||-----3-----3-----3-----7-7-8-------8---8-7--||
||--0--3--0--3--0--3--078---------------------||
||--0--3--0--3--0--3--------------------------||
pm  .     .     .

gtr.2 Leo
||--------------------------------------------||
||--------------------------------------------||
||--------------------------------------------|| x3
||-----3-----3-----3--------------------------||
||--0--3--0--3--0--3--0000-0-0-0-0-0-0-0-0-0--||
||--0--3--0--3--0--3--0000-0-0-0-0-0-0-0-0-0--||
pm  .     .     .     .... . . . . . . . . .


04:32 - 04:37
gtr.1 Javo
||--------------------------------------------------0--||
||--------------------------------------------------0--||
||-------------------------1-1-1-1-1-1-0-0-0-0-0-0--0--||
||-----3-----3-----3-------3-3-3-3-3-3-2-2-2-2-2-2--0--||
||--0--3--0--3--0--3--0000-1-1-1-1-1-1-0-0-0-0-0-0--0--||
||--0--3--0--3--0--3--0000--------------------------0--||
pm  .     .     .     ....

gtr.2 Leo
||-----------------------------------------------------||
||-----------------------------------------------------||
||--------------------------------------------------2--||
||-----3-----3-----3-------8-8-8-8-8-8-7-7-7-7-7-7--0--||
||--0--3--0--3--0--3--0000-8-8-8-8-8-8-7-7-7-7-7-7--0--||
||--0--3--0--3--0--3--0000-8-8-8-8-8-8-7-7-7-7-7-7--0--||
pm  .     .     .     ....


 ^   bend
< >  pitch armonics
pm.. palm muted
 \   down slide
///  trill
 x   muted

THATS IT =]

questions? e-mail me

WWW.MYSPACE.COM/PRESSIVEMUSIC
Suggest correction
Give kudos to tab author, rate the tab!
1 2 3 4 5
comments
print report bad tab
guest
You may want to rate the tab now too:
select rating
Wanna post a correction for this tab? Suggest correction