Oops, an error
Loading. Please wait.

Blasting Cap tab

49 views 1 this week
no commentswrite comment
1 2 3 4 5
3 more votes to show rating
add to favorites
×
Save as Personal and add changes to this tab that will be seen only by you. Learn more ›
×
You can save this tab as Personal to edit and correct it or add notes. All changes will be seen only by you. Learn more »
launch autoscroll
font size
0
reset
how to read this tab
guitar tuner
edit
Autoscroll
slow
fast
+/-
esc
set tempo
stop
written by Preston Reed
Tabbed as played by 
The Dark stranger
May 2017

[in Overhand position]
D|-0--0--0--0--X--X--X--X---| 
G|-0--0--0--0--X--X--X--X---| 
G|-0--0--0--0--X--X--X--X---|   REPEAT X7
D|-0-----0-----X--X--X--X---| 
G|-0-----0-----X--X--X--X---| 
C|-0-----------X--X--X--X---| 

D|-------------0--0--||----(12)-(12)-----(12)-------(12)---(12)--------0-| 
G|-------------0--0--||----(12)-(12)-----(12)-------(12)---(12)--------0-| 
G|-------------0--0--||----(12)-(12)-----(12)-------(12)---(12)--------0-| 
D|----------3--0--0--||--7-------------3-----------------X--------3--0-0-| REPEAT X4
G|--0--0--3----0--0--||--7-----------3-------------------X------3----0-0-| 
D|--0--0-------0-----||--7---------------------/0-UF-----X-----------0-0-| 

[Verse]
D|---H-8-P-0--------------------------------||----(12)-(12)-----(12)-------(12)---(12)--------0-| 
G|--------------H-8-P-0---------------------||----(12)-(12)-----(12)-------(12)---(12)--------0-| 
G|---H-8-P-0--------------------------------||----(12)-(12)-----(12)-------(12)---(12)--------0-| 
D|--------------H-8-P-0------0--------3---0-||--7-------------3-----------------X--------3--0-0-| 
G|-7-----------3---------------8----3---8---||--7-----------3-------------------X------3----0-0-| 
C|-7---------3----------0-UF----------------||--7---------------------/0-UF-----X-----------0-0-| 

D|---H-8-P-0------------------------------------||----(12)-(12)-----(12)-------(12)---(12)--------0-| 
G|--------------H-8-P-0-------------------------||----(12)-(12)-----(12)-------(12)---(12)--------0-| 
G|---H-8-P-0----------------------------H-8-P-0-||----(12)-(12)-----(12)-------(12)---(12)--------0-| 
D|--------------H-8-P-0------0---0----3---------||--7-------------3-----------------X--------3--0-0-| 
G|-7-----------3---------------8----3---H-8-P-0-||--7-----------3-------------------X------3----0-0-| 
C|-7---------3----------0-UF--------------------||--7---------------------/0-UF-----X-----------0-0-| 

D|---H-8-P-0---------------------------------||-----0-0-----(12)----(12)-X-(12)----0-0-| 
g|--------------H-8-P-0----------------------||-----0-0-----(12)----(12)-X-(12)----0-0-| 
G|---H-8-P-0------------------------3----0---||-----0-0-----(12)----(12)-X-(12)----0-0-| 
D|--------------H-8-P-0------0--------7----0-||--7--0-0----3-------------X-------3-0-0-| 
G|-7-----------3---------------8-------------||--7--0-0--3---------------X-----3---0-0-| 
C|-7---------3----------0-UF-----------------||--7--0-0---------/0-UF----X---------0-0-| 

D|---H-8-P-0------------------------------------||----(12)-(12)-----(12)-------(12)---(12)--------0-| 
G|--------------H-8-P-0-------------------------||----(12)-(12)-----(12)-------(12)---(12)--------0-| 
G|---H-8-P-0----------------------------H-8-P-0-||----(12)-(12)-----(12)-------(12)---(12)--------0-| 
D|--------------H-8-P-0------0--------3---------||--7-------------3-----------------X--------3--0-0-| 
G|-7-----------3---------------8----3---H-8-P-0-||--7-----------3-------------------X------3----0-0-| 
C|-7---------3----------0-UF--------------------||--7---------------------/0-UF-----X-----------0-0-|    

[Chorus]
D|-----H-10-P-0-----H-8-P-0----------------| D|-----12--0----------------------------| 
G|--------------------------------------8--| G|---------------9--0-------------------| 
G|-----H-10-P-0-----H-8-P-0----------------| G|-----12--0-------------------0--------| 
D|--------------------------------0-----8--| D|---------------9--0----------------10-| 
G|---3------------3-----------5-8-----5----| G|---4---------4---------9--11-----8----| 
C|-3------------3-----------5-------5------| C|-4---------4---------9---------8------| 

D|----------------0-10--10--0------||-0-0-0-0-0-0-0-----0--0--| 
G|---------------------------0-----||-0-0-0-0-0-0-0-----0--0--| 
G|-----------0--3---10--10----0----||-0-0-0-0-0-0-0-----0--0--| 
D|-----0---3-------------------0---||-0-0-0-0-0-0-0-----0--0--| 
G|---3---8----------2---2-------0--||-0-0-0-0-0-0-0---3----0--| 
C|-3----------------2---2--------0-||-0-0-0-0-0-0-0--3-----0--| 

D|----(12)-(12)-----(12)-------(12)---(12)--------0-| 
G|----(12)-(12)-----(12)-------(12)---(12)--------0-| 
G|----(12)-(12)-----(12)-------(12)---(12)--------0-| 
D|--7-------------3-----------------X--------3--0-0-| REPEAT X4
G|--7-----------3-------------------X------3----0-0-| 
C|--7---------------------/0-UF-----X-----------0-0-|

[Verse]
D|---H-8-P-0--------------------------------||----(12)-(12)-----(12)-------(12)---(12)--------0-| 
G|--------------H-8-P-0---------------------||----(12)-(12)-----(12)-------(12)---(12)--------0-| 
G|---H-8-P-0--------------------------------||----(12)-(12)-----(12)-------(12)---(12)--------0-| 
D|--------------H-8-P-0------0--------3---0-||--7-------------3-----------------X--------3--0-0-| 
G|-7-----------3---------------8----3---8---||--7-----------3-------------------X------3----0-0-| 
C|-7---------3----------0-UF----------------||--7---------------------/0-UF-----X-----------0-0-| 

D|---H-8-P-0------------------------------------||----(12)-(12)-----(12)-------(12)---(12)--------0-| 
G|--------------H-8-P-0-------------------------||----(12)-(12)-----(12)-------(12)---(12)--------0-| 
G|---H-8-P-0----------------------------H-8-P-0-||----(12)-(12)-----(12)-------(12)---(12)--------0-| 
D|--------------H-8-P-0------0--------3---------||--7-------------3-----------------X--------3--0-0-| 
G|-7-----------3---------------8----3---H-8-P-0-||--7-----------3-------------------X------3----0-0-| 
C|-7---------3----------0-UF--------------------||--7---------------------/0-UF-----X-----------0-0-| 

D|---H-8-P-0---------------------------------||-----0-0-----(12)----(12)-X-(12)----0-0-| 
g|--------------H-8-P-0----------------------||-----0-0-----(12)----(12)-X-(12)----0-0-| 
G|---H-8-P-0------------------------3----0---||-----0-0-----(12)----(12)-X-(12)----0-0-| 
D|--------------H-8-P-0------0--------7----0-||--7--0-0----3-------------X-------3-0-0-| 
G|-7-----------3---------------8-------------||--7--0-0--3---------------X-----3---0-0-| 
C|-7---------3----------0-UF-----------------||--7--0-0---------/0-UF----X---------0-0-| 

D|---H-8-P-0------------------------------------||----(12)-(12)-----(12)-------(12)---(12)--------0-| 
G|--------------H-8-P-0-------------------------||----(12)-(12)-----(12)-------(12)---(12)--------0-| 
G|---H-8-P-0----------------------------H-8-P-0-||----(12)-(12)-----(12)-------(12)---(12)--------0-| 
D|--------------H-8-P-0------0--------3---------||--7-------------3-----------------X--------3--0-0-| 
G|-7-----------3---------------8----3---H-8-P-0-||--7-----------3-------------------X------3----0-0-| 
C|-7---------3----------0-UF--------------------||--7---------------------/0-UF-----X-----------0-0-|    

[Chorus]
D|-----H-10-P-0-----H-8-P-0----------------| D|-----12--0----------------------------| 
G|--------------------------------------8--| G|---------------9--0-------------------| 
G|-----H-10-P-0-----H-8-P-0----------------| G|-----12--0-------------------0--------| 
D|--------------------------------0-----8--| D|---------------9--0----------------10-| 
G|---3------------3-----------5-8-----5----| G|---4---------4---------9--11-----8----| 
C|-3------------3-----------5-------5------| C|-4---------4---------9---------8------| 

D|----------------0-10--10--0------||-0-0-0-0-0-0-0-----0--0--| 
G|---------------------------0-----||-0-0-0-0-0-0-0-----0--0--| 
G|-----------0--3---10--10----0----||-0-0-0-0-0-0-0-----0--0--| 
D|-----0---3-------------------0---||-0-0-0-0-0-0-0-----0--0--| 
G|---3---8----------2---2-------0--||-0-0-0-0-0-0-0---3----0--| 
C|-3----------------2---2--------0-||-0-0-0-0-0-0-0--3-----0--| 

D|-0-4--9--0--------------------------0---0-0-0-0-0-0-0-0-0-0-|
G|-0-4---------4---7-0----------------0---0-0-0-0-0-0-0-0-0-0-|
G|-0-4--9------4-----0----------------0---0-0-0-0-0-0-0-0-0-0-| 
D|-4---------4-----7-----0---0---3--0---3-3-3-3-3-3-3-3-3-3-3-|
G|-4---------4---------0---8---3----0---3-3-3-3-3-3-3-3-3-3-3-|
C|-4---------4---------0------------0---3-3-3-3-3-3-3-3-3-3-3-|

D|-4/5-0-0---8-8-8-8-8-8-8-8-8-8-8-8------0-0-|
G|-4/5-0-0---9-9-9-9-9-9-9-9-9-9-9-9--4/5-0-0-|
G|-4/5-0-0---9-9-9-9-9-9-9-9-9-9-9-9--4/5-0-0-|
D|-----0-0---0-0---0-----0-0---0------------0-|
G|-----0-0---0-0---0-----0-0---0------------0-|
C|-----0-0---0-0---0-----0-0---0------------0-|

D|----(12)-(12)-----(12)-------(12)---(12)--------0-| 
G|----(12)-(12)-----(12)-------(12)---(12)--------0-| 
G|----(12)-(12)-----(12)-------(12)---(12)--------0-| 
D|--7-------------3-----------------X--------3--0-0-| REPEAT X4
G|--7-----------3-------------------X------3----0-0-| 
C|--7---------------------/0-UF-----X-----------0-0-|

[Verse]
D|---H-8-P-0--------------------------------||----(12)-(12)-----(12)-------(12)---(12)--------0-| 
G|--------------H-8-P-0---------------------||----(12)-(12)-----(12)-------(12)---(12)--------0-| 
G|---H-8-P-0--------------------------------||----(12)-(12)-----(12)-------(12)---(12)--------0-| 
D|--------------H-8-P-0------0--------3---0-||--7-------------3-----------------X--------3--0-0-| 
G|-7-----------3---------------8----3---8---||--7-----------3-------------------X------3----0-0-| 
C|-7---------3----------0-UF----------------||--7---------------------/0-UF-----X-----------0-0-| 

D|---H-8-P-0------------------------------------||----(12)-(12)-----(12)-------(12)---(12)--------0-| 
G|--------------H-8-P-0-------------------------||----(12)-(12)-----(12)-------(12)---(12)--------0-| 
G|---H-8-P-0----------------------------H-8-P-0-||----(12)-(12)-----(12)-------(12)---(12)--------0-| 
D|--------------H-8-P-0------0---0----3---------||--7-------------3-----------------X--------3--0-0-| 
G|-7-----------3---------------8----3---H-8-P-0-||--7-----------3-------------------X------3----0-0-| 
C|-7---------3----------0-UF--------------------||--7---------------------/0-UF-----X-----------0-0-| 

D|---H-8-P-0------------------------------------||----(12)-(12)-----(12)-------(12)---(12)--------0-| 
G|--------------H-8-P-0-------------------------||----(12)-(12)-----(12)-------(12)---(12)--------0-| 
G|---H-8-P-0----------------------------H-8-P-0-||----(12)-(12)-----(12)-------(12)---(12)--------0-| 
D|--------------H-8-P-0------0---0----3---------||--7-------------3-----------------X--------3--0-0-| 
G|-7-----------3---------------8----3---H-8-P-0-||--7-----------3-------------------X------3----0-0-| 
C|-7---------3----------0-UF--------------------||--7---------------------/0-UF-----X-----------0-0-| 

D|---H-8-P-0---------------------------------||-----0-0-----(12)----(12)-X-(12)----0-0-| 
G|--------------H-8-P-0----------------------||-----0-0-----(12)----(12)-X-(12)----0-0-| 
G|---H-8-P-0------------------------3----0---||-----0-0-----(12)----(12)-X-(12)----0-0-| 
D|--------------H-8-P-0------0--------7----0-||--7--0-0----3-------------X-------3-0-0-| 
G|-7-----------3---------------8-------------||--7--0-0--3---------------X-----3---0-0-| 
C|-7---------3----------0-UF-----------------||--7--0-0---------/0-UF----X---------0-0-|

[Chorus]
D|-----H-10-P-0-----H-8-P-0----------------| D|-----12--0----------------------------| 
G|--------------------------------------8--| G|---------------9--0-------------------| 
G|-----H-10-P-0-----H-8-P-0----------------| G|-----12--0-------------------0--------| 
D|--------------------------------0-----8--| D|---------------9--0----------------10-| 
G|---3------------3-----------5-8-----5----| G|---4---------4---------9--11-----8----| 
C|-3------------3-----------5-------5------| C|-4---------4---------9---------8------| 

D|----------------0-10--10--0------||-0-0-0-0-0-0-0-----0--0--| 
G|---------------------------0-----||-0-0-0-0-0-0-0-----0--0--| 
G|-----------0--3---10--10----0----||-0-0-0-0-0-0-0-----0--0--| 
D|-----0---3-------------------0---||-0-0-0-0-0-0-0-----0--0--| 
G|---3---8----------2---2-------0--||-0-0-0-0-0-0-0---3----0--| 
C|-3----------------2---2--------0-||-0-0-0-0-0-0-0--3-----0--| 

D|-5-5-5-5-\-3-3-3-3-0-0-0-0----------0-0--||-0-0-5-5-5-5-\-3-3-3-3-0-0-|
G|-5-5-5-5-\-3-3-3-3-0-0-0-0--8-8-8-8-0-0--||-0-0-5-5-5-5-\-3-3-3-3-0-0-|
G|-5-5-5-5-\-3-3-3-3-0-0-0-0--8-8-8-8-0-7--||-0-0-5-5-5-5-\-3-3-3-3-0-0-|
D|-8-8-8-8-----------0-0-0-0--8-8-8-8-0-7--||-0-0-5-5-5-5-----------0-4-|
G|-8-8-8-8-----------0-0-0-0----------0-7--||-0-0-8-8-8-8-------------4-|
C|-8-8-8-8-----------0-0-0-0----------0-7--||-0-0-8-8-8-8-------------4-|

D|-5-5-5-5-\-3-3-3-3-0-0-0-0----------0-5--|
G|-5-5-5-5-\-3-3-3-3-0-0-0-0--8-8-8-8-0-5--| 
G|-5-5-5-5-\-3-3-3-3-0-0-0-0--8-8-8-8-0-5--| 
D|-8-8-8-8-----------0-0-0-0--8-8-8-8-0-9--| 
G|-8-8-8-8-----------0-0-0-0----------0-9--| 
C|-8-8-8-8-----------0-0-0-0----------0-9--| 

[Outro]
D|-0-0-2-2-0-0-----0-0-4-4-0-0----0-0-5-5-0-0-----0-0-4-4-0-0-----|
G|-0-0-2-2-0-0-----0-0-4-4-0-0----0-0-5-5-0-0-----0-0-4-4-0-0-----|
G|----------------------------2P0---------------------------------|   REPEAT X2
D|-------------2P0--------------------------------------------2P0-|
G|-0------------------------------------------2P0-----------------|
C|-0--------------------------------------------------------------|

************************************

| (n)  harmonic slap
| /    Slide up
| \    Slide down
| h    hammer on
| p    pull off
| BS   butt slap  (ikr)
| SS   side slap
| UF   upper face slap
| BSS  Butt slap to side slap (quick succession)

************************************

            
            
Suggest correction
Creating personal tab
Creating personal tab
You can edit any tab online and save it as your Personal.

You can edit, replace or remove any tab part or add personal notes – all changes will be seen only by you.

Personal tabs can be accessed anytime from any device, even offline.
Learn more »
Give kudos to tab author, rate the tab!
1 2 3 4 5
comments
print report bad tab
guest
You may want to rate the tab now too:
select rating
Wanna post a correction for this tab? Suggest correction