Oops, an error
Loading. Please wait.

Shinkansen tab

7 views 1 this week
no commentswrite comment
1 2 3 4 5
3 more votes to show rating
add to favorites
×
Save as Personal and add changes to this tab that will be seen only by you. Learn more ›
×
You can save this tab as Personal to edit and correct it or add notes. All changes will be seen only by you. Learn more »
launch autoscroll
font size
0
reset
how to read this tab
guitar tuner
edit
Autoscroll
slow
fast
+/-
esc
set tempo
stop
About this tab version
Since there isnt one, I figured Id tab it out and share. Was this info helpful? Yes No
Artist: Preston Reed
Song: Shinkansen
tabbed as played by The Dark Stranger

Tuning from low to high
CGDGGD

THE STORY
D|-------0--------0--------0--------0-|
G|------------------------------------|
G|---5-7------5-7------5-7------5-7---| (<--x2)
D|-5--------5--------5--------5-------|
G|------------------------------------|
C|------------------------------------|

D|-----7--0-----7--0-----7--0-----7--0-|
G|---5--------5--------5--------5------|
G|-----7--------7--------7--------7--0-| (< x1)
D|-5--------5--------5--------5--------|
G|-------------------------------------|
C|-------------------------------------|

REPEAT AS YOU TELL THE STORY.

ALL ABOARD!
D|------0------0-------0--------0-|
G|--------------------------------|
G|---5------5------5--------5-----|
D|-5------5------5--------5-------|  <--|    
G|--------------------------------|     |
C|-----7------7------7--------7---|     |
                                        |-(REPEAT x2)
D|-----7-0-----7-0-----7-0-----7-0-|    |
G|---------------------------------|    |
G|---3-------3-------3-------3-----| <--|
D|-3-------3-------3-------3-------|
G|---------------------------------|
C|-----7-------7-------7-------7---|

FULL STEAM AHEAD
D|---------0---------------------------------|
G|-------------------0--------------------0--|
G|------------------------------0---------0--|
D|---7--10-----3--10------5--10--------------|
G|-7---------3----------5-----------5--10----|
C|--------------------------------5----------|

            BS/BT                BS/BT
D|---------------x---------------------x-------|
G|---------------x---------------------x-------|
G|---------------x---------------------x-------|
D|---7---------3-x---------5-----------x-------|
G|-7---------3---x-------5-----------5-x-------|
C|---------------x-----------------5---x-------|

D|---------0---------------------------------|
G|-------------------0--------------------0--|
G|------------------------------0---------0--|
D|---7--10-----3--10------5--10--------------|
G|-7---------3----------5-----------5--10----|
C|--------------------------------5----------|

            BS/BT                BS/BT
D|---------------x--------------------(12)---|
G|---------------x--------------------(12)---|
G|---------------x--------------------(12)---|
D|---7---------3-x---------5-----------x-----|
G|-7---------3---x-------5-----------5-x-----|
C|---------------x-----------------5---x-----|

STOP 1
D|-----10-P-0--H-2-H-10-P-2-P-0---------------------|
G|--------------------------------------------------|
G|-----10-P-0--H-2-H-10-P-2-P-0---------0-----------|
D|---7----------------------------3--10-----5-----0-|
G|-7----------------------------3---------5----10---|
C|--------------------------------------------------|

D|-----10-P-0--H-2-H-10-P-2-P-0---------------------|
G|---------------2------------0---------------------|
G|-----10-P-0--H-2-H-10-P-2-P-0---------0-----------|
D|---7----------------------------3--10-----------0-|
G|-7----------------------------3-----------3--10---|
C|----------------------------------------3---------|

D|---------0---------------------------------|
G|-------------------0--------------------0--|
G|------------------------------0---------0--|
D|---7--10-----3--10------5--10--------------|
G|-7---------3----------5-----------5--10----|
C|--------------------------------5----------|

D|------(12)(12)-----(12)(12)----(12)(12)----(12)(12)---|
G|------(12)(12)-----(12)(12)----(12)(12)----(12)(12)---|
G|------------------------------------------------------|
D|---7-------------3-----------5------------------------|
G|-7--------------3-----------5------------5------------|
C|----------------------------------------5-------------|

CONTINUE
D|---------0---------------------------------|
G|-------------------0--------------------0--|
G|------------------------------0---------0--|
D|---7--10-----3--10------5--10--------------|
G|-7---------3----------5-----------5--10----|
C|--------------------------------5----------|
       BS              BS          
D|--------0-------x-------0--------|
G|--------0-------x-------0-----0--|
G|--------0-------x-------0-----0--|
D|---7----------3-x---5---------0--|
G|-7----------3---x--5--------5----|
C|----------------x----------5-----|

D|---------0---------------------------------|
G|-------------------0--------------------0--|
G|------------------------------0---------0--|
D|---7--10-----3--10------5--10--------------|
G|-7---------3----------5-----------5--10----|
C|--------------------------------5----------|
       BS              BS          
D|--------0-------x-------0-----(12)--|
G|--------0-------x-------0-----(12)--|
G|--------0-------x-------0-----(12)--|
D|---7----------3-x---5---------(12)--|
G|-7----------3---x--5--------5-------|
C|----------------x----------5--------|

STOP 2
D|-----10-P-0--H-2-H-10-P-2-P-0---------------------|
G|--------------------------------------------------|
G|-----10-P-0--H-2-H-10-P-2-P-0---------0-----------|
D|---7----------------------------3--10-----5-----0-|
G|-7----------------------------3---------5----10---|
C|--------------------------------------------------|

D|-----10-P-0--H-2-H-10-P-2-P-0---------------------|
G|---------------2------------0---------------------|
G|-----10-P-0--H-2-H-10-P-2-P-0---------0-----------|
D|---7----------------------------3--10-----------0-|
G|-7----------------------------3-----------3--10---|
C|----------------------------------------3---------|

D|---------0---------------------------------|
G|-------------------0--------------------0--|
G|------------------------------0---------0--|
D|---7--10-----3--10------5--10--------------|
G|-7---------3----------5-----------5--10----|
C|--------------------------------5----------|

ON DOWN THE LINE
D|----0---------0---------0-0-0-|----0---------0---------------|
G|----0-0-0-0-0-0-0-----0-0-0-0-|----0-0-0-0-0-0-0-----0-0-0-0-|
G|----0-0-0-0-0-0-0-0-0-0-0-0-0-|----0-0-0-0-0-0-0-0-0-0-0-0-0-|
D|-/5-5-5-5-5-5-5-5-5-5-5-5-0-0-|--3-3-3-3-3-3-3-3-3-3-3-3-0-0-|
G|-/5-5-5-5-5-5-5-5-5-5-5-5-0-0-|--3-3-3-3-3-3-3-3-3-3-3-3-0-0-|
C|------------------------------|------------------------------|

D|----0---------0---------0-0-0-|----0----------H-3-H-7-P-0------------------0-|
G|----0-0-0-0-0-0-0-----0-0-0-0-|----0-0-0-0-0--------------H-3-H-7-P-0------0-|
G|----0-0-0-0-0-0-0-0-0-0-0-0-0-|----0-0-0-0-0--H-3-H-7-P-0--------------H-3-0-|PUT SOME STANK
D|--2-2-2-2-2-2-2-2-2-2-2-2-0-0-|--3-3-3-3-3-3--------------H-3-H-7-P-0--H-3-0-|ON THAT LAST HIT
G|--0-0-0-0-0-0-0-0-0-0-0-0-0-0-|--3-3-3-3-3-3------------------0--------H-3-0-|
C|------------------------------|--------------------------------------------0-|

VIEWING THE COUNTRY SIDE
           BS/BT                BS/BT
D|---------------x---------------------x-------|
G|---------------x---------------------x-------|
G|---------------x---------------------x-------|  (<--REPEAT x2)
D|---7---------3-x---------5-----------x-------|
G|-7---------3---x-------5-----------5-x-------|
C|---------------x-----------------5---x-------|

D|---------0---------------------------------|
G|-------------------0--------------------0--|
G|------------------------------0---------0--|
D|---7--10-----3--10------5--10--------------|
G|-7---------3----------5-----------5--10----|
C|--------------------------------5----------|

D|------(12)(12)-----(12)(12)----(12)(12)----(12)(12)---|
G|------(12)(12)-----(12)(12)----(12)(12)----(12)(12)---|
G|------------------------------------------------------|
D|---7-------------3-----------5------------------------|
G|-7--------------3-----------5------------5------------|
C|----------------------------------------5-------------|

D|---------0---------------------------------|
G|-------------------0--------------------0--|
G|------------------------------0---------0--|
D|---7--10-----3--10------5--10--------------|
G|-7---------3----------5-----------5--10----|
C|--------------------------------5----------|

D|--------0-------x-------0-----(12)--|
G|--------0-------x-------0-----(12)--|
G|--------0-------x-------0-----(12)--|
D|---7----------3-x---5---------(12)--|
G|-7----------3---x--5--------5-------|
C|----------------x----------5--------|

STOP 3
D|-----10-P-0--H-2-H-10-P-2-P-0---------------------|
G|--------------------------------------------------|
G|-----10-P-0--H-2-H-10-P-2-P-0---------0-----------|
D|---7----------------------------3--10-----5-----0-|
G|-7----------------------------3---------5----10---|
C|--------------------------------------------------|

D|-----10-P-0--H-2-H-10-P-2-P-0---------------------|
G|---------------2------------0---------------------|
G|-----10-P-0--H-2-H-10-P-2-P-0---------0-----------|
D|---7----------------------------3--10-----------0-|
G|-7----------------------------3-----------3--10---|
C|----------------------------------------3---------|

D|---------0---------------------------------|
G|-------------------0--------------------0--|
G|------------------------------0---------0--|
D|---7--10-----3--10------5--10--------------|
G|-7---------3----------5-----------5--10----|
C|--------------------------------5----------|

INTO THE SUNSET
D|----0---------0---------0-0-0-|----0---------0---------------|
G|----0-0-0-0-0-0-0-----0-0-0-0-|----0-0-0-0-0-0-0-----0-0-0-0-|
G|----0-0-0-0-0-0-0-0-0-0-0-0-0-|----0-0-0-0-0-0-0-0-0-0-0-0-0-|
D|-/5-5-5-5-5-5-5-5-5-5-5-5-0-0-|--3-3-3-3-3-3-3-3-3-3-3-3-0-0-|
G|-/5-5-5-5-5-5-5-5-5-5-5-5-0-0-|--3-3-3-3-3-3-3-3-3-3-3-3-0-0-|
C|------------------------------|------------------------------|
                                                          /  /  /  /
D|----0---------0---------0-0-0-|----0---------|      |-0-|-0-|-0-|-0-|
G|----0-0-0-0-0-0-0-----0-0-0-0-|----0-0-0-0-0-|      |-0-|-0-|-0-|-0-|
G|----0-0-0-0-0-0-0-0-0-0-0-0-0-|----0-0-0-0-0-| /... |-5-|-0-|-8-|-0-|
D|--2-2-2-2-2-2-2-2-2-2-2-2-0-0-|--3-3-3-3-3-3-|      |-5-|-7-|-8-|-8-|
G|--0-0-0-0-0-0-0-0-0-0-0-0-0-0-|--3-3-3-3-3-3-|      |-0-|-7-|-8-|-8-|
C|------------------------------|--------------|      |-0-|-7-|---|-8-|

D|-------0--------0--------0--------0-|
G|------------------------------------|
G|---5-7------5-7------5-7------5-7---| (<--REPEAT x2)
D|-5--------5--------5--------5-------|
G|------------------------------------|
C|------------------------------------|

SHINKANSEN MEANS NEW TRUMP LINE
D|-------0-9----0-------0-9----0-|
G|---------9--------------9------|
G|---------9--------------9------|   (<--REPEAT x2)
D|---9-10--9--10----9-10--9--10--|
G|----------------9--------------|
C|-9-----------------------------|

D|-------------------------|----------------------------|
G|-----h-7-p-0---4---7-P-0-|-----h-7-p-9-0---4---7-P-0--|
G|-------------H-4-H-------|---------------H-4-H--------|   (<--REPEAT x2)
D|-----h-7-p-0---4---7-P-0-|---4-h-7-p-9-0---4---7-P-0--|   
G|---4---------------------|-4--------------------------|
C|-4-----------------------|----------------------------|

D|-------0-9----0-------0-9----0-|
G|---------9--------------9------|
G|---------9--------------9------|   (<--REPEAT x2)
D|---9-10--9--10----9-10--9--10--|
G|----------------9--------------|
C|-9-----------------------------|

D|-------------------------|----------------------------|
G|-----h-7-p-0---3---7-P-0-|-----h-7-p-9-0---3---7-P-0--|
G|-------------H-3-H-------|---------------H-3-H--------|   (<--REPEAT x2)
D|-----h-7-p-0---3---7-P-0-|---3-h-7-p-9-0---3---7-P-0--|   
G|---3---------------------|-3--------------------------|
C|-3-----------------------|----------------------------|

D|-------0-8----0-------0-8----0-|-------0-8----0-------0-8-H-10-P-0-|
G|---------8--------------8------|---------8--------------8----------|
G|---------8--------------8------|---------8--------------8-H-10-P-0-|  
D|---8-10--8--10----8-10--8--10--|---8-10--8--10----8-10--8----------|
G|----------------8--------------|----------------8------------------|
C|-8-----------------------------|-8---------------------------------|

D|------------------|--------------0|
G|------------------|---------------|
G|----------------0-|---------------|
D|--------0--8-10---|--------0-8-10-|  (<-- REPEAT x2)
G|---8-10-----------|---8-10--------|
C|-0----------------|-0-------------|

D|-------0-8----0-------0-8----0-|------------------------------0-5-H-10-P-0-|
G|---------8--------------8------|-----10-P-0-H-3-10-P-0----------5----------|
G|---------8--------------8------|------------H-3-----------------5-H-10-P-0=|  
D|---8-10--8--10----8-10--8--10--|-----10-P-0-H-3-10-P=0--5-H-10-------------|
G|----------------8--------------|---3---------------------------------------|
C|-8-----------------------------|-3---------------------5-------------------|

LAST STOP
D|---------0---------0----------0--------0-|
G|-------------------0----------0----------|
G|------------------------------0----------|  (<-- REPEAT x2)
D|---7--10-----7--10------7--10-----7--10--|
G|-7---------7----------7---------7--------|
C|-----------------------------------------|

TO THE FINAL DESTINATION
D|---------0---------------------------------|
G|-------------------0--------------------0--|
G|------------------------------0---------0--|
D|---7--10-----3--10------5--10--------------|
G|-7---------3----------5-----------5--10----|
C|--------------------------------5----------|

       BS              BS          
D|--------0-------x-------0--------|
G|--------0-------x-------0-----0--|
G|--------0-------x-------0-----0--|
D|---7----------3-x---5---------0--|
G|-7----------3---x--5--------5----|
C|----------------x----------5-----|

D|---------0---------------------------------|
G|-------------------0--------------------0--|
G|------------------------------0---------0--|
D|---7--10-----3--10------5--10--------------|
G|-7---------3----------5-----------5--10----|
C|--------------------------------5----------|

       BS              BS          
D|--------0-------x-------0-----(12)--|
G|--------0-------x-------0-----(12)--|
G|--------0-------x-------0-----(12)--|
D|---7----------3-x---5---------(12)--|
G|-7----------3---x--5--------5-------|
C|----------------x----------5--------|

D|-----10-P-0--H-2-H-10-P-2-P-0---------------------|
G|--------------------------------------------------|
G|-----10-P-0--H-2-H-10-P-2-P-0---------0-----------|
D|---7----------------------------3--10-----5-----0-|
G|-7----------------------------3---------5----10---|
C|--------------------------------------------------|

D|-----10-P-0--H-2-H-10-P-2-P-0---------------------|
G|---------------2------------0---------------------|
G|-----10-P-0--H-2-H-10-P-2-P-0---------0-----------|
D|---7----------------------------3--10-----------0-|
G|-7----------------------------3-----------3--10---|
C|----------------------------------------3---------|

D|---------0---------------------------------|
G|-------------------0--------------------0--|
G|------------------------------0---------0--|
D|---7--10-----3--10------5--10--------------|
G|-7---------3----------5-----------5--10----|
C|--------------------------------5----------|

D|----0---------0---------0-0-0-|----0---------0---------------|
G|----0-0-0-0-0-0-0-----0-0-0-0-|----0-0-0-0-0-0-0-----0-0-0-0-|
G|----0-0-0-0-0-0-0-0-0-0-0-0-0-|----0-0-0-0-0-0-0-0-0-0-0-0-0-|
D|-/5-5-5-5-5-5-5-5-5-5-5-5-0-0-|--3-3-3-3-3-3-3-3-3-3-3-3-0-0-|
G|-/5-5-5-5-5-5-5-5-5-5-5-5-0-0-|--3-3-3-3-3-3-3-3-3-3-3-3-0-0-|
C|------------------------------|------------------------------|

D|----0---------0---------0-0-0-|----0---------|-0-3-7-0-------|
G|----0-0-0-0-0-0-0-----0-0-0-0-|----0-0-0-0-0-|-0-3-----3-7-0-|
G|----0-0-0-0-0-0-0-0-0-0-0-0-0-|----0-0-0-0-0-|-0-3-7-0-3-----|
D|--2-2-2-2-2-2-2-2-2-2-2-2-0-0-|--3-3-3-3-3-3-|-0-------3-7-0-|
G|--0-0-0-0-0-0-0-0-0-0-0-0-0-0-|--3-3-3-3-3-3-|-0-------------|
C|------------------------------|--------------|-0-------------|

D|---0-0-0-0-|-0-3-7-0-------|---0-0-0-0-|-0-----------------5-P-0-|
G|-3-0-0-0-0-|-0-3-7-0-------|---0-0-0-0-|-0-3-5-/-6-P-0-H-3-------|
G|-3-0-0-0-0-|-0-3-----3-7-0-|-5-5-5-5-5-|-0-3-5-/-6-P-0-H-3-5-P-0-|
D|-3-3-3-3-3-|-0-------3-7-0-|-5-5-5-5-5-|-0-3-5-/-6-P-0-H-3-------|
G|-3-3-3-3-3-|-0-------------|-5-5-5-5-5-|-0-----------------------|
C|-----------|-0-------------|-5-5-5-5-5-|-0-----------------------|

           BS/BT                BS/BT
D|---------------x---------------------x----------|
G|---------------x---------------------x----------|
G|---------------x---------------------x----------|
D|---7---------3-x---------5-----------x----7-0-0-|
G|-7---------3---x-------5-----------5-x--7---0-0-|
C|---------------x-----------------5---x------0-0-|

D|---0-0-0-0-|-0-3-7-0-------|---0-0-0-0-|-0-----------------5-P-0-|
G|-3-0-0-0-0-|-0-3-7-0-------|---0-0-0-0-|-0-3-5-/-6-P-0-H-3-------|
G|-3-0-0-0-0-|-0-3-----3-7-0-|-5-5-5-5-5-|-0-3-5-/-6-P-0-H-3-5-P-0-|
D|-3-3-3-3-3-|-0-------3-7-0-|-5-5-5-5-5-|-0-3-5-/-6-P-0-H-3-------|
G|-3-3-3-3-3-|-0-------------|-5-5-5-5-5-|-0-----------------------|
C|-----------|-0-------------|-5-5-5-5-5-|-0-----------------------|

D|---|
G|---|
G|-8-|
D|-8-|
G|-8-|
C|-8-|

D|-H-3-H-7-P-0------------------0-|
G|-------------H-3-H-7-P-0------0-|
G|-H-3-H-7-P-0--------------H-3-0-|PUT SOME STANK
D|-------------H-3-H-7-P-0--H-3-0-|ON THAT LAST HIT
G|-----------------0--------H-3-0-|
C|------------------------------0-|

NOW STEAM ON OUTTA HERE.


**************************************************************************
x=SLAP
()=HARMONIC SLAP
BS=BUTT SLAP
BT=BUTT TAP
\ /=SLIDE UP/DOWN



************************************

| x    Dead note
| (n)  Ghost note
| /    Slide up
| h    Hammer-on
| p    Pull-off
  

************************************

            
            
Suggest correction
Creating personal tab
Creating personal tab
You can edit any tab online and save it as your Personal.

You can edit, replace or remove any tab part or add personal notes – all changes will be seen only by you.

Personal tabs can be accessed anytime from any device, even offline.
Learn more »
Give kudos to tab author, rate the tab!
1 2 3 4 5
comments
print report bad tab
guest
You may want to rate the tab now too:
select rating
Wanna post a correction for this tab? Suggest correction