Oops, an error
Loading. Please wait.

En La Oscuridad chords

version 1
version 1

Whole song

355 views 1 this week
no commentswrite comment
1 2 3 4 5
3 more votes to show rating
add to favorites
×
Save as Personal and add changes to this tab that will be seen only by you. Learn more ›
×
You can save this tab as Personal to edit and correct it or add notes. All changes will be seen only by you. Learn more »
launch autoscroll
font size
0
reset
transpose
0
reset
simplify chords
display chords
guitar tuner
edit
Autoscroll
slow
fast
+/-
esc
set tempo
stop
Strumming
There is no strumming pattern for this song yet. and get +5 IQ
Hola La Cuerda, aquí les dejo esta canción de presuntos implicados.
En la parte de abajo pongo las posiciones de algunos acordes para
que no haya ninguna confusión.

Cualquier duda, comentario o petición háganla al mail: hectorprs@


Intro:

C9  C#9   Dm9 Dm7 Gm7    Dm9 Dm7 Gm7


         Dm9 Dm7           Gm7
En la oscuridad, en la que me dejé vencer
          Dm9 Dm7        Gm7     C9
Vuelvo a recordar, presa del atardecer
       Am7(b5)                   D7(b9)
Y encerrada en mi memoria quedan gotas del silencio
        Gm7        C9
Que nos vio ceder


        Dm9 Dm7       Gm7
En la oscuridad, descubriendo los engaños
     Dm9  Dm7       Gm7            C9
Déjame llorar, conseguiste hacerme daño
      Am7(b5)                  D7(b9)
Tanta luz que prometías, se quebró como los días
    Gm7               Cm7    F9
Al anochecer y estaba tan perdida


Bbmaj7      Aaug        Dm7          Cm7   F9
Déjame continuar con mi vida, yo no puedo jugar
Bbmaj7       Aaug   Dm7    Cm7   F9
No volveré a caer jamás
Bbmaj7       Aaug     Dm7             Cm7  F9
Déjame conservar la belleza de esta oscuridad
      Bbmaj7       Aaug   Dm7   G7   C9
Donde no volveré a caer jamás


        Dm9 Dm7     Gm7
En la oscuridad, anulaste mis sentidos
      Dm9  Dm7      Gm7           C9
Diste soledad, recompensa de tu olvido
      Am7(b5)                  D7(b9)
Tanta luz que prometías, se quebró como los días
        Gm7          Cm7    F9
Que he visto caer, oh no no...


Bbmaj7      Aaug        Dm7          Cm7   F9
Déjame continuar con mi vida, yo no puedo jugar
Bbmaj7       Aaug   Dm7    Cm7   F9
No volveré a caer jamás
Bbmaj7       Aaug     Dm7             Cm7  F9
Déjame conservar la belleza de esta oscuridad
      Bbmaj7       Aaug   Abmaj7   G7
Donde no volveré a caer          jamás


Solo:
           Dm9  Dm7          Gm7         Dm9     Dm7      Gm7
e *------------------------------------------------------------
B *------------------6-----------------------------------------
G *------7-5-------7----7-5---------------------------5--------
D *--4s5--------------------6p5--------------7----------7-8----
A *----------------------------------8p7--5----5---------------
E *------------------------------------------------------------

                          Dm9        Dm7   Gm7     C9
e --------5-8--5----------5------------------13s12-12s10-10s8--*
B ------6--------8----6h8-6h8--6-6---5h6-----------------------*
G --5h7------------------------7-7---5h7-----10s9--9s7----7s5--*
D -------------------------------------------------------------*
A -------------------------------------------------------------*
E -------------------------------------------------------------*


    Am7(b5)                    D7(b9)
Golpeando los instintos, voy abriéndome camino
          Gm7             Cm7       F9
Hacia la realidad, siento que estoy,  que estoy viva


Bbmaj7      Aaug        Dm7          Cm7   F9
Déjame continuar con mi vida, yo no puedo jugar
Bbmaj7       Aaug   Dm7    Cm7   F9
No volveré a caer jamás
Bbmaj7       Aaug     Dm7             Cm7  F9
Déjame conservar la belleza de esta oscuridad
      Bbmaj7       Aaug   Dm7   Cm7   F9
Donde no volveré a caer jamás


Bbmaj7      Aaug        Dm7          Cm7   F9
Déjame continuar con mi vida, yo no puedo jugar
Bbmaj7       Aaug   Dm7    Cm7   F9
No volveré a caer jamás
Bbmaj7       Aaug     Dm7             Cm7  F9
Déjame conservar la belleza de esta oscuridad
      Bbmaj7       Aaug   Dm7   Cm7   F9
Donde no volveré a caer jamás


Bbmaj7  Aaug   Dm7  Cm7  F9  (se repite hasta el final)


Acordes:

e *-----*-----*-----*-----*---------*-------*-----*
B *--3--*--4--*--5--*--6--*----4----*---4---*--8--*
G *--3--*--4--*--5--*--5--*----5----*---5---*--8--*
D *--2--*--3--*--3--*--3--*----5----*---4---*--7--*
A *--3--*--4--*--5--*--5--*---------*---5---*--8--*
E *-----*-----*-----*-----*----5----*-------*-----*
     C9   C#9   Dm9   Dm7   Am7(b5)   D7(b9)  F9


e *-------*-------*-----*
B *---6---*---6---*--4--*
G *---7---*---6---*--5--*
D *---7---*---7---*--5--*
A *-------*-------*-----*
E *---6---*---5---*--4--*
   Bbmaj7   Aaug   Abmaj7

            
            
Suggest correction
Creating personal tab
Creating personal tab
You can edit any tab online and save it as your Personal.

You can edit, replace or remove any tab part or add personal notes – all changes will be seen only by you.

Personal tabs can be accessed anytime from any device, even offline.
Learn more »
Give kudos to tab author, rate the tab!
1 2 3 4 5
comments
print report bad tab
guest
Wanna post a correction for this tab? Suggest correction