Oops, an error
Loading. Please wait.

Faded Love Tab

955 views 1 this week
no commentswrite comment
1 2 3 4 5
please rate
add to favorites
launch autoscroll
font size
0
reset
how to read this tab
guitar tuner
Tab Pro tools
  • play this tab
  • loop segment
  • change instrument
  • show fretboard
  • metronome
×
Best way to learn
"Faded Love"
Autoscroll
slow
fast
+/-
esc
set tempo
stop
Contributor
Difficulty
Tuning
novice
D# G# C# F# A# D#
-------------------------------------------------------------------------------
                             Faded Love - Pre)Thing
-------------------------------------------------------------------------------
Tabbed by: Andy Guzman
Email: Pearljamhurtlover@hotmail.com

Tuning: Half step down
Intro
e|---------------------------------------------------------------------------|
B|---------------------------------------------------------------------------|
G|--------1---1--1--1--------------------------------------1-----1-----------|
D|--------2---2--2--2----4---2--2------2---------2---4-----2---2--2---2------|
A|-2------2---2--2--2----5---3--3--------3-------3---5-----2--2-2--2-2--2----|
E|-----------------------5---3--3----3-----3-3---3---5-----------------------|

e|---------------------------------------------------------------------------|
B|---------------------------------------------------------------------------|
G|--1--1--1--1---------------------------------------------------------------|
D|--2--2--2--2-----4----2-----2--------2----4------2-------------------------|
A|--2--2--2--2-----5----3-------3------3----5------2-------------------------|
E|-----------------5----3----3---3-3---3----5------0-------------------------|


Verse 1 and 2
e|---------------------------------------------------------------------------|
B|---------------------------------------------------------------------------|
G|--------1---1--1--1--------------------------------------1-----1-----------|
D|--------2---2--2--2----4---2--2------2---------2---4-----2---2--2---2------|
A|-2------2---2--2--2----5---3--3--------3-------3---5-----2--2-2--2-2--2----|
E|-----------------------5---3--3----3-----3-3---3---5-----------------------|

e|---------------------------------------------------------------------------|
B|---------------------------------------------------------------------------|
G|--1--1--1--1-------------------------------------1------1------------------|
D|--2--2--2--2-----4----2-----2--------2----4------2-------------------------|
A|--2--2--2--2-----5----3-------3------3----5------2---2---------------------|
E|-----------------5----3----3---3-3---3----5------0-------------------------|

Chorus
e|-----0--0--0--0---------0--0----0-----------0-----------------------|
B|-----0--0--0--0----3----1--1----1-----3-----0-----------------------|
G|-----1--1--1--1----0----0--0----0-----0-----1-----------------------|
D|-2---2--2--2--2----4----2--2----2-----4-----2-----------------------| 2X
A|-2---2--2--2--2----5----3--3----3-----5-----2-----------------------|
E|-0---0--0--0--0----5----3--3----3-----5-----0-----------------------|

Bridge/Pre-verse/Post-chorus ( I'm not sure what it's called but I call those bridges)
e|----------------------------------------------------------------------|
B|----------------------------------------------------------------------|
G|------------4----------------------4----------------------------------|
D|-------5-------5-----5-------5-------5--------------------------------|
A|--5--5----5-------5-----5--5----5------5------------------------------|
E|----------------------------------------------------------------------|
             Now that I'm thinking of you, can we...

e|---------------------------------------------------------------------|
B|---------------------------------------------------------------------|
G|---------------------------------------------------------------------|
D|----------2--------------------2-------------------------------------|
A|------3------3-----3-------3------3---3------------------------------|
E|-3--3---3-------3----3--3----3------3--------------------------------|
...do it again?  Do we face everything? And I....


e|---------------------------------------------------------------------|
B|---------------------------------------------------------------------|
G|---------------------------------------------------------------------|
D|-----------4-------------------4-------------------------------------|
A|-------5-----5---5-------5-------5-----5-----------------------------|
E|--5--5---5-----5----5--5----5-------5--------------------------------|
....swear I can hold you all day.

Hard rock bridge/outro
e|----------------------------------------------------------------------|
B|----------------------------------------------------------------------|
G|----------------------------------------------------------------------|
D|-2--2---4--4---5--5---6--7--------------------------------------------|2X
A|-2--2---4--4---3--5---6--7--------------------------------------------|
E|-0--0---2--2---3--3---4--5--------------------------------------------|


e|----------------------------------------------------------------------|
B|----------------------------------------------------------------------|
G|----------------------------------------------------------------------|
D|-2--2---4--4---5--5---6--6---7--7---8--8---9--9---10---12-------------|
A|-2--2---4--4---3--5---6--6---7--7---8--8---9--9---10---12-------------|
E|-0--0---2--2---3--3---4--4---5--5---6--6---7--7---8----10-------------|

After you play this the first time, you would repeat the chorus while the solo in E
rages on. I play E5 instead of the E major chord for this part so that if someone were to
a solo, they wouldn't worry about the G# meddling in the E minor scale. Otherwise, 
to play the G sharp IF you just use the E major chord.


After the solo, you would play the chorus twice, then the hard rock bridge and the end 
E major.

************************************

| /   slide up
| \   slide down
| h   hammer-on
| p   pull-off
| ~   vibrato
| +   harmonic
| x   Mute note
| b   Bend
| pb  Pre-bend
| br  Bend release
| pbr Pre-bend release
| brb Bend release bend
comments
We did not receive enough feedback on this tab! Please rate:
print report bad tab
1 2 3 4 5
I want to post or [tab]
guest
You may want to rate the tab now too:
select rating
Please do not post tabs as comments. Select "correction" instead!