Oops, an error
Loading. Please wait.

Nothing To Trade tab

28 views 1 this week
no commentswrite comment
1 2 3 4 5
2 more votes to show rating
add to favorites
×
Save as Personal and add changes to this tab that will be seen only by you. Learn more ›
×
You can save this tab as Personal to edit and correct it or add notes. All changes will be seen only by you. Learn more »
launch autoscroll
font size
0
reset
how to read this tab
guitar tuner
edit
Autoscroll
slow
fast
+/-
esc
set tempo
stop
[Intro]
e|------------------------------------------------|
B|------------------------------------------------|
G|------------------------------------------------|
D|--------0--2----------0--2---------0--0h2p0-----|
A|-----3-------------3------------3------------3--|
E|----------------------------1-------------------|
 C            Am                                  C

e|-----------------------------------------------|
B|-----------------------------------------------|
G|-----------------------------------------------|
D|--------0--2----------0--2--3------ --0--2-----|
A|-----3-------------3---------------3--------3--|
E|-----------------------------------------------|
 C            Am                F                  C  F

C
Dressed to the nines
     Am
at a country hall dance
        F                              C
All the heads spinning when you walk by
                                   Am
She got a smile so bright that you make one yourself
   F                       C
As soon as it catches your eye

e|------------------------------------------------------|
B|------------------------------------------------------|
G|------------------------------------------------------|
D|---------------0--2----------0--2--3---------0--2-----|
A|----0--3----3-------------3--------------3---------3--|
E|-3----------------------------------------------------|
         C            Am              F               C

C                      Am
I think of things that money can buy
   F                     C
compared to you sayin my name
                               Am
Those things disappear and the answer is clear
    F                      C
and only your sweet voice remains

[Chorus]
C                  Am
You aint nothin to trade
   F               C
oh nothin compares to ya
C                  Am
You aint nothin to trade
         F              C
Im gonna love you til I lose ya

e|------------------------------------------------------|
B|------------------------------------------------------|
G|------------------------------------------------------|
D|---------------0--2----------0--2--3---------0--2-----|
A|----0--3----3-------------3--------------3---------3--|
E|-3----------------------------------------------------|
         C            Am              F               C

C                    Am
Others have tried to steal you away
    F                   C
but they never get very far
                                Am
cuz diamonds and pearls no they wont take my girl
F                        C
she just likes my old guitar

C                      Am
I take your hand and I ask you to dance
    F                     C
and I meet you out on the floor
       C                       Am
well I cant keep a beat, I got two left feet
    F                   C
but I keep on comin for more

C                  Am
You aint nothin to trade
   F               C
oh nothin compares to ya
C                  Am
You aint nothin to trade
         F              C       B
Im gonna love you til I lose ya

[Bridge]
Am                        C
   My heart told me to be patient
Am                         C
   My heart said take your time
F                         Am
   This old heart couldnt see you
         C             F
it didnt know you were one of a kind

C                  Am
You aint nothin to trade
   F               C
oh nothin compares to ya
C                  Am
You aint nothin to trade
         F              C
Im gonna love you til I lose ya

C                  Am
You aint nothin to trade
   F               C
oh nothin compares to ya
C                  Am
You aint nothin to trade
         F              C
Im gonna love you til I lose ya
Suggest correction
Creating personal tab
Creating personal tab
You can edit any tab online and save it as your Personal.

You can edit, replace or remove any tab part or add personal notes – all changes will be seen only by you.

Personal tabs can be accessed anytime from any device, even offline.
Learn more »
Give kudos to tab author, rate the tab!
1 2 3 4 5
comments
print report bad tab
guest
You may want to rate the tab now too:
select rating
Wanna post a correction for this tab? Suggest correction