Oops, an error
Loading. Please wait.

All Medicated Geniuses bass

version 2
version 2

Whole song

252 views 3 this week
no commentswrite comment
1 2 3 4 5
3 more votes to show rating
add to favorites
×
Save as Personal and add changes to this tab that will be seen only by you. Learn more ›
×
You can save this tab as Personal to edit and correct it or add notes. All changes will be seen only by you. Learn more »
launch autoscroll
font size
0
reset
guitar tuner
edit
Autoscroll
slow
fast
+/-
esc
set tempo
stop
Author
Difficulty
Band: Pretty Girls Make Graves
Song: All Medicated Geniuses
Album: The New Romance
Tabbed By: Dave Sheehan (daveys14@hotmail.com)

I felt the original tab for this song wasn't exact so I decided to tab it as I heard it. 
didn't use the original tab as a basis for this one. Comments and corrections welcome - 
tab is as much for me as it is for everyone else, as I love this song :)

Song is laid out here in the same order as the song.

=====
INTRO
=====

No bass.

=======
VERSE 1
=======

G|------------------------------------------------|
D|-7---5-7---5-7---5-7---3-5---3-5---3-5---3-5---3|
A|---7-----7-----7-----7-----5-----5-----5-----5--|
E|------------------------------------------------|

G|------------------------------------------------------|
D|-7---5-7---5-7---5-7---3-5---3-5---3-5---3-5---3------|
A|---7-----7-----7-----7-----5-----5-----5-----5--------|
E|-------------------------------------------------5~~~-|

=======
VERSE 2
=======

G|------------------------------------------|
D|------------------------------------------|
A|------------------------------------------|
E|-5-5--5-5--5-5--5-5-03-3--3-3--3-3--3-3-0-|


G|------------------------------------------|
D|------------------------------------------|
A|------------------------------------------|
E|-5-5--5-5--5-5--5-5-03-3--3-3--3-3--3-3-3-|

=====
BREAK
=====

G|-----------------------|
D|-7---5-7---5-7---5-7---|
A|---7-----7-----7-----7-|
E|-----------------------|

=======
VERSE 3
=======

G|------------------------------------------|
D|------------------------------------------|
A|------------------------------------------|
E|-5-5--5-5--5-5--5-5-03-3--3-3--3-3--3-3-0-|


G|------------------------------------------|
D|------------------------------------------|
A|------------------------------------------|
E|-5-5--5-5--5-5--5-5-03-3--3-3--3-3--3-3-3-|

G|----------------------------------------|
D|----------------------------------------|
A|----------------------------------------|
E|-5-5--5-5--5-5--5-5-03-3--3-3--3-3--3-3-|

=======
VERSE 4
=======

G|------------------------------------------------|
D|-7---5-7---5-7---5-7---3-5---3-5---3-5---3-5---3|
A|---7-----7-----7-----7-----5-----5-----5-----5--|
E|------------------------------------------------|

G|-----------------------------------------------------|
D|-7---5-7---5-7---5-7---3-5---3-5---3-5---3-5---3-----|
A|---7-----7-----7-----7-----5-----5-----5-----5-------|
E|-------------------------------------------------5-5-|

=======
BRIDGE
=======

G|-----------------------------------------------------|
D|-----------------------------------------------------|
A|-2-33-2--22--------3-5-77-5--55--------2-33-2--22----|
E|------------03-35----------------03-35-------------3-|

G|-------------------------------------|
D|-------------------------------------|
A|----3-5-77-5--55--------2-33-2--22---|
E|-55---------------3-55-------------3-| x several, until final A note and back into 
riff with no bass.

            
            
Suggest correction
Creating personal tab
Creating personal tab
You can edit any tab online and save it as your Personal.

You can edit, replace or remove any tab part or add personal notes – all changes will be seen only by you.

Personal tabs can be accessed anytime from any device, even offline.
Learn more »
Give kudos to tab author, rate the tab!
1 2 3 4 5
comments
print report bad tab
guest
You may want to rate the tab now too:
select rating
Wanna post a correction for this tab? Suggest correction