Oops, an error
Loading. Please wait.

National Plastics tab

139 views 3 this week
no commentswrite comment
1 2 3 4 5
3 more votes to show rating
add to favorites
×
Save as Personal and add changes to this tab that will be seen only by you. Learn more ›
×
You can save this tab as Personal to edit and correct it or add notes. All changes will be seen only by you. Learn more »
launch autoscroll
font size
0
reset
how to read this tab
guitar tuner
edit
Autoscroll
slow
fast
+/-
esc
set tempo
stop
Author
Difficulty
[Intro]
e|-----------------------------------------------|
B|-----0~~~~~~~~~~~0~~~~~~~~~~~0~~~~~~~~~~~0~~~~~|
G|--3~~~~~3~~~~~3~~~~~3~~~~~3~~~~~3~~~~~3~~~~~3~~|
D|5~~~~~~~~~~5~~~~~~~~~~~------------------------|
A|-----------------------3~~~~~~~~~~~1~~~~~~~~~~~|
E|-----------------------------------------------|

[Verse]

[Chords]
G5 G5 Bb5 C5

e|------------------------------------------------------------------------------------------------|
B|------------------------------------------------------------------------------------------------|
G|------------------------------------------------------------------------------------------------|
D|------5--5--3--3--5--5--------5--5--3--3--5--5--------5--5--3--3--5--5--------5--5--3--3--5--5--|
A|------------------------------------------------------------------------3--3--------------------|
E|3--3--------------------3--3--------------------6--6--------------------------------------------|

[Chorus]

[Chords]

Eb5 D5 C5 Bb5 G5 A5 Bb5
Eb5       D5   C5   Bb5 G5        A5   Bb5
    Maybe it's okay,        maybe it's okay
Eb5         D5     C5     Bb5   G5      A5     Bb5
    To live in the moment,         live in the moment
Eb5       D5 C5    Bb5  G5
          So close your eyes
A5  Bb5   C5
And go to sleep!

[Verse]

[Chords]
G5 G5 Bb5 C5
e|------------------------------------------------------------------------------------------------|
B|------------------------------------------------------------------------------------------------|
G|------------------------------------------------------------------------------------------------|
D|------5--5--3--3--5--5--------5--5--3--3--5--5--------5--5--3--3--5--5--------5--5--3--3--5--5--|
A|------------------------------------------------------------------------3--3--------------------|
E|3--3--------------------3--3--------------------6--6--------------------------------------------|

[Chorus]

[Chords]
Eb5 D5 C5 Bb5 G5 A5 Bb5
Eb5       D5   C5   Bb5 G5        A5   Bb5
    Maybe it's okay,        maybe it's okay
Eb5         D5     C5     Bb5   G5      A5     Bb5
    To live in the moment,         live in the moment
Eb5       D5 C5    Bb5  G5
          So close your eyes
A5  Bb5   C5
And go to sleep!


            
            
Suggest correction
Creating personal tab
Creating personal tab
You can edit any tab online and save it as your Personal.

You can edit, replace or remove any tab part or add personal notes – all changes will be seen only by you.

Personal tabs can be accessed anytime from any device, even offline.
Learn more »
Give kudos to tab author, rate the tab!
1 2 3 4 5
comments
print report bad tab
guest
You may want to rate the tab now too:
select rating
Wanna post a correction for this tab? Suggest correction