Oops, an error
Loading. Please wait.

Everything That You Are bass

version 1
version 1

Whole song

Interactive

752 views 1 this week
1 commentread comment
1 2 3 4 5
x 3
add to favorites
×
Save as Personal and add changes to this tab that will be seen only by you. Learn more ›
×
You can save this tab as Personal to edit and correct it or add notes. All changes will be seen only by you. Learn more »
launch autoscroll
font size
0
reset
guitar tuner
edit
Autoscroll
slow
fast
+/-
esc
set tempo
stop
Author
-------------------------------------------------------------------------------
EVERYTHING THAT YOU ARE- Priestess
-------------------------------------------------------------------------------
Tabbed by: Karl Schmaltz
Email: (karl_schmaltz@hotamil.com)


  Main Riff – X3
G|-----------------------------------------|
D|--------------3-5------------------------|
A|-3-3-3-3-3-3------------8--6-6-6-6--8----|
E|-------------------8-6-------------------|

  Pre Verse
G|---------------------------------------|
D|---------------------------------------|
A|-1-3-3---1-3-3--1-3-3--6----6----6-3---|
E|-------------------------6----6--------|

  Verse– X4
G|-----------------------------------------|
D|--------------3-5------------------------|
A|-3-3-3-3-3-3------------8--6-6-6-6--8----|
E|-------------------8-6-------------------|

  Chorus – X1
G|----------------------------------------------------------|
D|----------------------------------------------------------|
A|----------------------------------------------------------|
E|-3-4-6-7--8--8--8--8--8--8--8--8--8--8--8--8--3-4-6-7--8--|

   Break – Do This For A Long Time
G|---------------------------------------------------------------------------|
D|---------------------------------------------------------------------------|
A|---------------------------------------------------------------------------|
E|--8--8--8--8--8--8--8--8--8--8--8--8--8--8--8--8--8--8--8--8--8--8--8--8-6-|

  Verse– X4
G|-----------------------------------------|
D|--------------3-5------------------------|
A|-3-3-3-3-3-3------------8--6-6-6-6--8----|
E|-------------------8-6-------------------|

Chorus – X1
G|----------------------------------------------------------|
D|----------------------------------------------------------|
A|----------------------------------------------------------|
E|-3-4-6-7--8--8--8--8--8--8--8--8--8--8--8--8--3-4-6-7--8--|

  With Solo – X4
G|----------------------------------------------------------------------------|
D|----------------------------------------------------------------------------|
A|----------------------------------------------6-6-6-6-6-6-6-6-6-6-6-6-6-6-6-|
E|--8--8--8--8--8--8--8--8--8--8--8--8--8--8--8-------------------------------|

G|-----------|
D|-----------|
A|-----------|
E|-3-4-6-7---|

Main Riff – X3
G|-----------------------------------------|
D|--------------3-5------------------------|
A|-3-3-3-3-3-3------------8--6-6-6-6--8----|
E|-------------------8-6-------------------|

Verse– X4
G|-----------------------------------------|
D|--------------3-5------------------------|
A|-3-3-3-3-3-3------------8--6-6-6-6--8----|
E|-------------------8-6-------------------|

Chorus – X7 – A Little Different At The End
G|----------------------------------------------------------|
D|----------------------------------------------------------|
A|----------------------------------------------------------|
E|-3-4-6-7--8--8--8--8--8--8--8--8--8--8--8--8--3-4-6-7--8--|

===============================================================================

            
            
Suggest correction
Creating personal tab
Creating personal tab
You can edit any tab online and save it as your Personal.

You can edit, replace or remove any tab part or add personal notes – all changes will be seen only by you.

Personal tabs can be accessed anytime from any device, even offline.
Learn more »
Give kudos to tab author, rate the tab!
1 2 3 4 5
comments
print report bad tab
1 comment total.
0 reply
EkkyDethrax 20 Jun 10, 2011 08:52 AM

You have to move it one fret down, or it won't fit.
Also, there's some bass fills after the verse riff (during the drum fill at the end of each verse), after the first chorus is played. Hard to hear, but they're they're.

And to make it a whole lot easier!
Play the verse like this:
G|-------------------------------------------------|
D|-------------------------------------------------|
A|-----------------7/9-------7--5-5-5-5-5-5-5-5-7--|
E|--7---7-7-7-7-7-------7/5------------------------|

And another correction, this time to the pre-verse:
G|-------------------------------------------------|
D|-------------------------------------------------|
A|-------------------------------5---5-------------|
E|-0-5h7-7----0-5h7-7----0-5h7-7---5---5-2/5-7-----|

Can't read the bass fills though, if I could, I would.

Great tab besides that. Great work mate.

guest
You may want to rate the tab now too:
select rating
Wanna post a correction for this tab? Suggest correction