Oops, an error
Loading. Please wait.

Lay Down bass

version 1
version 1

Whole song

Interactive

21,279 views 33 this week
4 commentsread comments
1 2 3 4 5
x 9
add to favorites
×
Save as Personal and add changes to this tab that will be seen only by you. Learn more ›
×
You can save this tab as Personal to edit and correct it or add notes. All changes will be seen only by you. Learn more »
launch autoscroll
font size
0
reset
guitar tuner
backing track
0:00
0:00
edit
Autoscroll
slow
fast
+/-
esc
set tempo
stop
Author
Difficulty
Priestess-Lay Down(Hello Master)
Tabbed By Wesfield

1/2 Step Down
----------------------------------------------------------------------
Main Riff
|--------------------------------------|
|--------5-----------------------------|
|----------0-0-------------------------|
|-0-0-5-7------7-5-7-5-55-55-7-5-3-3-5-|x3

|--------------------------------------------------------------|
|--------5-----------------------------------------------------|
|----------0-0-------------------------------------------------|
|-0-0-5-7------7-5-7-5-55-55-5-3-2-1-0-0-xxx-0-0-xxx-0-0-xxx-0-|

Break

Verse
|-----------------------------------------------------------|
|-----------------------------------------------------------|
|---------------------------------------10-10-----10-10-----|
|-0-00-00-00-00-00-00-00-00-00-00-00-00-------000-------000-|x2

|-------------------------------------------------------------------|
|-----------------------------------5-------------------------------|
|-------------------------------------0-0---------------------------|
|-5-55-55-55-55-55-55-55-5--0-0-5-7-------7-5-7-5-55-55-7-5-3-5-6-7-|

Pre-chorus 1
|---------------------------------------|
|---------------------------------------|
|---------------------------------------|
|-7-77-77-77-77-77-77-77-7-777777777777-|

Chorus
|-------------------------------------------------------------|
|------------------------------------5------------------------|
|--------------------------------------0-0--------------------|
|-0-0----3-3----5-55-55-55-5--0-0-5-7------7-5-7-5-55-55-55-5-|x2

|------------------|
|------------------|
|------------------|
|88888888-77777777-|

Main Riff (Just First Half x2)

Verse

Pre-chorus 2
|--------------------------|
|--------------------------|
|--------------------------|
|-7-77-77-77-77-77-77-7-7\-|

Chorus

Bridge

|-----|
|-----|
|-----|
|-0~~~|

Solo
|-----------------------------------------------------------|
|-----------------------------------------------------------|
|---------------------------------------10-10-----10-10-----|
|-0-00-00-00-00-00-00-00-00-00-00-00-00-------000-------000-|

|-----------------------------------------------------------|
|-----------------------------------------------------------|
|-----------------------------------------------------------|
|-0-00-00-00-00-00-00-00-00-00-00-00-00-5-55-55-55-5-5555555|

Chorus (first part x3, then second part)

Outro
|--------------------------------------|
|--------5-----------------------------|
|----------0-0-------------------------|
|-0-0-5-7------7-5-7-5-55-55-7-5-3-3-5-|

|---------------------------------------------------|
|--------5------------------------------------------|
|----------0-0--------------------------------------|
|-0-0-5-7------7-5-7-5-55-55-7-5-3-2-1-0-0-xxx-0-0--|
Suggest correction
Creating personal tab
Creating personal tab
You can edit any tab online and save it as your Personal.

You can edit, replace or remove any tab part or add personal notes – all changes will be seen only by you.

Personal tabs can be accessed anytime from any device, even offline.
Learn more »
comments
print report bad tab
4 comments total. Showing first comments.
+2 reply
slipknot_4_life 51 Nov 03, 2007 04:09 PM

Standard tuning doesnt sound right, try tuning it down to:
F#|----------
C#|----------
G#|----------
D#|----------

So a half-step down. It sounds more correct.
But good job on the tab

0 reply
PunkKid_19 76 Jan 10, 2008 10:35 AM

the chorus has slides like
this
Chorus
|-------------------------------------------------------------|
|------------------------------------5---
---------------------|
|-----7/-----10/-----------------------0-0--------------------|
|-0-0----3-3----5-55-55-55-5--0
-0-5-7------7-5-7-5-55-55-55-5-|x2
and i also think its a half step down

0 reply
Fender_bender34 10 Mar 18, 2008 03:11 AM

Sounds pretty good

guest
You may want to rate the tab now too:
select rating
Wanna post a correction for this tab? Suggest correction