Oops, an error
Loading. Please wait.

Lay Down tab

version 2
version 2

Whole song

Interactive

34,023 views 24 this week
5 commentsread comments
1 2 3 4 5
x 5
add to favorites
×
Save as Personal and add changes to this tab that will be seen only by you. Learn more ›
×
You can save this tab as Personal to edit and correct it or add notes. All changes will be seen only by you. Learn more »
launch autoscroll
font size
0
reset
how to read this tab
guitar tuner
backing track
0:00
0:00
edit
Autoscroll
slow
fast
+/-
esc
set tempo
stop
Difficulty
intermediate
| /  slide up
| \  slide down
| h  hammer-on
| p  pull-off
| ~  vibrato
| *  harmonic
| x  Mute note
| b  bend


Tuning: Half step down

Main Riff
|--------------------------------------|
|--------------------------------------|
|--------------------2-0---0-----------|
|--------5---------------2---2-0-------|
|-----0-2--0-0-------------------5-5-7-|
|-0-0----------5-3-5-------------3-3-5-|x3

|----------------------------------------------------------------|
|----------------------------------------------------------------|
|--------------------2-0---0-------------------------------------|
|--------5---------------2---2-0-------2-2-----2-2-----2-2-----2-|
|-----0-2--0-0-------------------5-4-3-2-2-xxx-2-2-xxx-2-2-xxx-2-|
|-0-0----------5-3-5-------------3-2-1-0-0-xxx-0-0-xxx-0-0-xxx-0-|

Fill 
|--------------|
|--------------|
|--------------|
|--------------|
|2-3-1-2-1-0-1-|
|--------------|

Verse
|-----------------------------------------------------------|
|-----------------------------------------------------------|
|---------------------------------------12-12-----12-12-----|
|-2-------------------------------------12-12-----12-12-----|
|-2-22-22-22-22-22-22-22-22-22-22-22-22-10-10-----10-10-----|
|-0-00-00-00-00-00-00-00-00-00-00-00-00-------000-------000-|x2

|-------------------------------------------------------------------|
|-------------------------------------------------------------------|
|-----------------------------------------------2-0---0-------------|
|-----------------------------------5---------------2---2-0---------|
|-7-77-77-77-77-77-77-77-7------2-0---0-0-------------------5-7-8-9-|
|-5-55-55-55-55-55-55-55-5--0-0-----------5-3-5-------------3-5-6-7-|

Pre-chorus 1
|---------------------------------------|
|---------------------------------------|
|---------------------------------------|
|---------------------------------------|
|-9-99-99-99-99-99-99-99-9-999999999999-|
|-7-77-77-77-77-77-77-77-7-777777777777-|

Chorus
|--------------------------------------------------------------|
|--------------------------------------------------------------|
|--------------------------------------------------------------|
|-2-2\---5-5\---7-77-77-77-7----------------------7-77-77-77-7-|
|-2-2\---5-5\---7-77-77-77-7----------2---------5-7-77-77-77-7-|
|-0-0\---3-3\---5-55-55-55-5--0-0-3-5---3-3-5-7---5-55-55-55-5-|x2

|---------------------------|
|---------------------------|
|---------------------------|
|-1010101010101010-99999999-|
|-1010101010101010-99999999-|
|--8-8-8-8-8-8-8-8-77777777-|

|--------------------------------------|
|--------------------------------------|
|--------------------2-0---0-----------|
|--------5---------------2---2-0-------|
|-----0-2--0-0-------------------5-5-7-|
|-0-0----------5-3-5-------------3-3-5-|

|--------------------------------------|
|--------------------------------------|
|--------------------2-0---0-----------|
|--------5---------------2---2-0-------|
|-----0-2--0-0-------------------5-4-3-|
|-0-0----------5-3-5-------------3-2-1-|

Verse
|-----------------------------------------------------------|
|-----------------------------------------------------------|
|---------------------------------------12-12-----12-12-----|
|-2-------------------------------------12-12-----12-12-----|
|-2-22-22-22-22-22-22-22-22-22-22-22-22-10-10-----10-10-----|
|-0-00-00-00-00-00-00-00-00-00-00-00-00-------000-------000-|x2


Pre-chorus 2
|--------------------------|
|--------------------------|
|--------------------------|
|--------------------------|
|-9-99-99-99-99-99-99-9-9\-|
|-7-77-77-77-77-77-77-7-7\-|


Chorus
|--------------------------------------------------------------|
|--------------------------------------------------------------|
|--------------------------------------------------------------|
|-2-2\---5-5\---7-77-77-77-7----------------------7-77-77-77-7-|
|-2-2\---5-5\---7-77-77-77-7----------2---------5-7-77-77-77-7-|
|-0-0\---3-3\---5-55-55-55-5--0-0-3-5---3-3-5-7---5-55-55-55-5-|x2

|---------------------------|
|---------------------------|
|---------------------------|
|-1010101010101010-99999999-|
|-1010101010101010-99999999-|
|--8-8-8-8-8-8-8-8-77777777-|


Bridge
|------------------------------------------------|
|------------------------------------------------|
|------------------------------------------------|
|-2~---2~---2~-----------------------------------|
|-2~---0~---0~-----2-2-3-1-2-1-0-1---------------|
|-0~---0~---0~-----------------------------------|

Solo  
|------------------------------------------------------------|
|--12--16--15-12-15-16-15-12--15-12-15-16-15-12-11--13-10-9--|
|------------------------------------------------------------|
|------------------------------------------------------------|
|------------------------------------------------------------|
|------------------------------------------------------------|

|---------------------------------------------------------------------|
|--12--16--15-12-15-16-15-12--15-12-15-16-15-12-18--18-19-18-17-16-19-|
|---------------------------------------------------------------------|
|---------------------------------------------------------------------|
|---------------------------------------------------------------------|
|---------------------------------------------------------------------|
 
Chorus
|--------------------------------------------------------------|
|--------------------------------------------------------------|
|--------------------------------------------------------------|
|-2-2\---5-5\---7-77-77-77-7----------------------7-77-77-77-7-|
|-2-2\---5-5\---7-77-77-77-7----------2---------5-7-77-77-77-7-|
|-0-0\---3-3\---5-55-55-55-5--0-0-3-5---3-3-5-7---5-55-55-55-5-|x3

|---------------------------|
|---------------------------|
|---------------------------|
|-1010101010101010-99999999-|
|-1010101010101010-99999999-|
|--8-8-8-8-8-8-8-8-77777777-|


Outro
|--------------------------------------|
|--------------------------------------|
|--------------------2-0---0-----------|
|--------5---------------2---2-0-------|
|-----0-2--0-0-------------------5-5-7-|
|-0-0----------5-3-5-------------3-3-5-|


|--------------------------------------------------|
|--------------------------------------------------|
|--------------------2-0---0-----------------------|
|--------5---------------2---2-0-------2-2-----2-2-|
|-----0-2--0-0-------------------5-4-3-2-2-xxx-2-2-|
|-0-0----------5-3-5-------------3-2-1-0-0-xxx-0-0-|
Suggest correction
Creating personal tab
Creating personal tab
You can edit any tab online and save it as your Personal.

You can edit, replace or remove any tab part or add personal notes – all changes will be seen only by you.

Personal tabs can be accessed anytime from any device, even offline.
Learn more »
comments
print report bad tab
5 comments total. Showing first comments.
-1 reply
BeanieM2B 10 Mar 25, 2008 11:24 AM

im confused..... whats the fill after the intro?

dont take this as a cheap shot or a put-down or anything but some of the parts in this are way off, you should look at version 1 of this tab as it is a bit more accurate, again im not trying to put you down or anything just tryin to help...

+3 reply
1 the j man 43 May 13, 2008 04:43 PM

no this is actually the right way

look at thier music video this one is right
he is just missing the hammer ons in the main riff

version one is wrong
but it still sounds pretty good

the fill is weird i think too though

+1 reply
SlayerPLayer 31 May 16, 2008 08:01 PM

this is pretty right, some of this is right and some of the other version is. they both have wrong parts in them tho. the fill is that part right after the intro, its really obvious what it is if u play Guitar Hero 3, which i do :) this is how that guy who does the videos on youtube plays it, the one who plays the intros to all the guiar hero songs, and hes a professional. but this isnt totally correct, its pretty accurate tho

guest
Wanna post a correction for this tab? Suggest correction