Oops, an error
Loading. Please wait.

Shakes bass

250 views 1 this week
1 commentread comment
1 2 3 4 5
1 last vote to show rating
add to favorites
×
Save as Personal and add changes to this tab that will be seen only by you. Learn more ›
×
You can save this tab as Personal to edit and correct it or add notes. All changes will be seen only by you. Learn more »
launch autoscroll
font size
0
reset
guitar tuner
edit
Autoscroll
slow
fast
+/-
esc
set tempo
stop
Author
Song: The Shakes
Artist: Priestess
Album: Hello Master

Tabbed By: Karl Schmaltz
E-Mail: (karl_schmaltz@hotmail.com

Intro
G|-----------|
D|-----------|
A|-----5-----|
E|-5-3---5---|

Verse – X2
G|-----------------------------------------|
D|-----------------------------------------|
A|-----------------------------------------|
E|-3/5—-3/5—-3/5—-3/5—-3/5--3/5—-3/5—-3/5--|

Verse – X2
G|------------------------------------------|
D|------------------------------------------|
A|------------------------------------------|
E|--3/5—-3/5—-3/5—-3/5—-3/5--3/5—-3/5—-3/5--|

Lead – X2
G|----------------------------|
D|----------------------------|
A|------------5-------------5-|
E|-5-3-55-3-5----5-3-55-3-5---|

Verse – X4
G|-----------------------------------------|
D|-----------------------------------------|
A|-----------------------------------------|
E|-3/5—-3/5—-3/5—-3/5—-3/5--3/5—-3/5—-3/5--|

Chorus – X4
G|-------------------------------|
D|-------------------------------|
A|-----5-------------------------|
E|-5-3---5--5-5-5--3-3-3--5-5-5--|

G|-----------------|
D|-----------------|
A|-----------------|
E|-3/5-3/5-3/5-3/5-|

Verse – X4
G|-----------------------------------------|
D|-----------------------------------------|
A|-----------------------------------------|
E|-3/5—-3/5—-3/5—-3/5—-3/5--3/5—-3/5—-3/5--|

Chorus – X4
G|-------------------------------|
D|-------------------------------|
A|-----5-------------------------|
E|-5-3---5--5-5-5--3-3-3--5-5-5--|


Intro
G|-----------|
D|-----------|
A|-----5-----|
E|-5-3---5---|

Use The Verse During The Solo
Verse – X4
G|-----------------------------------------|
D|-----------------------------------------|
A|-----------------------------------------|
E|-3/5—-3/5—-3/5—-3/5—-3/5--3/5—-3/5—-3/5--|


G|-------------------|
D|-------------------|
A|-------------------|
E|-5-5-5-5-5-5-5-5-5-|

Lead – X1
G|---------------|
D|---------------|
A|---------------|
E|-5-3-55-3-5----|

Chorus – X4
G|-------------------------------|
D|-------------------------------|
A|-----5-------------------------|
E|-5-3---5--5-5-5--3-3-3--5-5-5--|

Lead – X3
G|---------------|
D|---------------|
A|---------------|
E|-5-3-55-3-5----|

G|-------------------|
D|-------------------|
A|-----5-------------|
E|-5-3--------8--5---|

            
            
Suggest correction
Creating personal tab
Creating personal tab
You can edit any tab online and save it as your Personal.

You can edit, replace or remove any tab part or add personal notes – all changes will be seen only by you.

Personal tabs can be accessed anytime from any device, even offline.
Learn more »
Give kudos to tab author, rate the tab!
1 2 3 4 5
comments
print report bad tab
1 comment total.
0 reply
music_monster 10 Oct 18, 2007 03:17 PM

you dont slide, its more like 3-3-5, 3-3-5

guest
You may want to rate the tab now too:
select rating
Wanna post a correction for this tab? Suggest correction