Oops, an error
Loading. Please wait.

Soul Stripper Tab

755 views 1 this week
no commentswrite comment
1 2 3 4 5
3 more votes to show rating
add to favorites
launch autoscroll
font size
0
reset
how to read this tab
guitar tuner
×
Best way to learn
"Soul Stripper"
Autoscroll
slow
fast
+/-
esc
set tempo
stop
Author
This is the song Soul Stripper by Prima Donna.
It's from the album After Hours.
It's my first tab so there could be mistakes. I'm sorry.
http://www.primadonnarocks.com/ - were on tour with Green Day

Intro

|-----------------------------|
|-----------------------------|
|-----------------------------|
|-----------------------------|
|-7--7-9-x10--7-7--7-9-x10-7--|
|-5--5-5-x5---5-5--5-5-x5--5--| x2

Verse riff (also played during the solo)

|----------------------------------------------------------|
|----------------------------------------------------------|
|----------------------------------------------------------|
|----------------------------------------------------------|
|-7--7-9-x10--7-7--7-9-x10-7---9--9-11x12--9-9--9-11x12-9--|
|-5--5-5-x5---5-5--5-5-x5--5---7--7-7-x7---7-7--7-7-x7--7--|

|------------------------------------------------(-----------)|
|-7--7-7-7-8-x9--9-9-9-9-9-9-9-------------------(-----------)|
|-7--7-7-7-8-x9--9-9-9-9-9-9-9-------------------(-----------)|
|-7--7-7-7-8-x9--9-9-9-9-9-9-9-------------------(-----------)|
|-5--5-5-5-6-x7--7-7-7-7-7-7-7--7--7-9-x10--7-7--(7-9-x10-7--)|
|-------------------------------5--5-5-x5---5-5--(5-5-x5--5--)|

sometimes the brackets aren't played

Chorus riff

|----------------------------------------------------------|
|-7--7--7-7-7-7--7-7--7-7-7-7x-----------------------------|
|-7--7--7-7-7-7--7-7--7-7-7-7x-----------------------------|
|-7--7--7-7-7-7--7-7--7-7-7-7x7--7--7-7-7-7--7-7--7-7-7-7x-|
|-5--5--5-5-5-5--5-5--5-5-5-5x7--7--7-7-7-7--7-7--7-7-7-7x-|
|-----------------------------5--5--5-5-5-5--5-5--5-5-5-5x-|

|-------------------------------|
|-9--9-9-9-8-x7--7-7-7-7-7-7-7--|
|-9--9-9-9-8-x7--7-7-7-7-7-7-7--|
|-9--9-9-9-8-x7--7-7-7-7-7-7-7--|
|-7--7-7-7-6-x5--5-5-5-5-5-5-5--|
|-------------------------------|

|------------------(-----------)|
|------------------(-----------)|
|------------------(-----------)|
|------------------(-----------)|
|-7--7-9-x10--7-7--(7-9-x10-7--)|
|-5--5-5-x5---5-5--(5-5-x5--5--)| brackets aren't played during first chorus

After the second and third chorus:

|----------------------------------------------------------|
|-7--7--7-7-7-7--7-7--7-7-7-7x-----------------------------|
|-7--7--7-7-7-7--7-7--7-7-7-7x------------6--6-6-6-6-6-6-6-|
|-7--7--7-7-7-7--7-7--7-7-7-7x7--7--7-7-7-6--6-6-6-6-6-6-6-|
|-5--5--5-5-5-5--5-5--5-5-5-5x7--7--7-7-7-4--4-4-4-4-4-4-4-|
|-----------------------------5--5--5-5-5------------------|


|-------------------------------(-----------------(-----------)|
|-7--7-7-7-8-x9--9-9-9-9-9-9-9--(-----------------(-----------)|
|-7--7-7-7-8-x9--9-9-9-9-9-9-9--(-----------------(-----------)|
|-7--7-7-7-8-x9--9-9-9-9-9-9-9--(-----------------(-----------)|
|-5--5-5-5-6-x7--7-7-7-7-7-7-7--(7--7-9-x10--7-7--(7-9-x10-7--)|
|-------------------------------(5--5-5-x5---5-5--(5-5-x5--5--)|



End

|---------------------------------------------------------------|
|---------------------------------9--9-9-9-8-x-7--7-7-7-7-7-7-7-|
|---------------------------------9--9-9-9-8-x-7--7-7-7-7-7-7-7-|
|---------------------------------9--9-9-9-8-x-7--7-7-7-7-7-7-7-|
|--7--7-7-7-6-x-4--4-4-4-4-4-4-4--7--7-7-7-6-x-5--5-5-5-5-5-5-5-|
|--5--5-5-5-4-x-2--2-2-2-2-2-2-2--------------------------------|


|-------------------------------------------------|
|---------------------------------7--7-7-7-8-x-9/-|
|---------------------------------7--7-7-7-8-x-9/-|
|---------------------------------7--7-7-7-8-x-9/-|
|--7--7-7-7-6-x-4--4-4-4-4-4-4-4--5--5-5-5-6-x-7/-|
|--5--5-5-5-4-x-2--2-2-2-2-2-2-2------------------|


|-------------------------------------------------------------------------|
|-------------------------------------------------------------------------|
|-------------------------------------------------------------------------|
|-------------------------------------------------------------------------|
|-7--7-9-x10--7-7--7-9-x10-7-7--7--7-9-x10--7-7--10/9-7--77777777--o-d--n-|
|-5--5-5-x5---5-5--5-5-x5--5-5--5--5-5-x5---5-5--5----5--55555555-h-l--o--|

Please listen to the song to know when the parts are played.
I hope you enjoy.

Suggest correction
Give kudos to tab author, rate the tab!
1 2 3 4 5
comments
print report bad tab
guest
You may want to rate the tab now too:
select rating
Wanna post a correction for this tab? Suggest correction