Oops, an error
Loading. Please wait.

No Place Like Home bass

version 1
version 1

Whole song

Interactive

42 views 1 this week
no commentswrite comment
1 2 3 4 5
x 4
add to favorites
×
Save as Personal and add changes to this tab that will be seen only by you. Learn more ›
×
You can save this tab as Personal to edit and correct it or add notes. All changes will be seen only by you. Learn more »
launch autoscroll
font size
0
reset
guitar tuner
edit
Autoscroll
slow
fast
+/-
esc
set tempo
stop
                              No Place Like Home                                


                             Primal Rock Rebellion


Adrian Smith


          Intro                                                              
     S    Q        W                   W                   W                 
G||----|--------|-------------------|-------------------|-------------------|
D||----|--------|-------------------|-------------------|-------------------|
A||----|--------|-------------------|-------------------|-------------------|
D||----|--------|-------------------|-------------------|-------------------|


                      Main Riff                        
  W                   E         E  E  S E  E  E  S E   
-------------------|----------------------------------|
-------------------|----------------------------------|
-------------------|----------------------------------|
-------------------|--0---------0--0--0-0--0--0--0-0--|


  E  E  S E  E.  S  S S S E     E  E  E  S E  E  E  S E   
-----------------------------|---------------------------|
-----------------------------|---------------------------|
----------------------5-5-5--|---------------------------|
--0--0--0-0--0---5S-7--------|--0--0--0--0-0--0--0--0-0--|


                             Verso                        
  E.  S E.  S E.  S E.  S    E     E  E  S E  E  E  S E   
--------------------------|------------------------------|
--------------------------|------------------------------|
--------------1---x-3---x-|------------------------------|
--3---x-5---x-------------|--0-----0--0--0-0--0--0--0-0--|


  E  E  S E  E.  S  S S S E     E  E  E  S E  E  E  S E   
-----------------------------|---------------------------|
-----------------------------|---------------------------|
----------------------5-5-5--|---------------------------|
--0--0--0-0--0---5S-7--------|--0--0--0--0-0--0--0--0-0--|


  E.  S E.  S E.  S E.  S    E  E  E  S E  E  E  S E   
--------------------------|---------------------------|
--------------------------|---------------------------|
--------------1---x-3---x-|---------------------------|
--3---x-5---x-------------|--0--0--0--0-0--0--0--0-0--|


  E  E  S E  E.  S  S S S E     E  E  E  S E  E  E  S E   
-----------------------------|---------------------------|
-----------------------------|---------------------------|
----------------------5-5-5--|---------------------------|
--0--0--0-0--0---5S-7--------|--0--0--0--0-0--0--0--0-0--|


                             Coro A                    
                             >                     >   
  E.  S E.  S E.  S E.  S    Q      E  S S Q    E  E   
--------------------------|---------------------------|
--------------------------|---------------------------|
--------------1---x-3---x-|--5------5--5-5-5----5--1--|
--3---x-5---x-------------|---------------------------|


                       >                          >                         >   
  E  E  E  S S Q    E  E     E  E  E  S S Q    E  E     E  E  E  E  E.  E.  E   
--------------------------|--------------------------|-------------------------|
--------------------------|--------------------------|-------------------------|
--L--1--1--1-1-1----1--3--|--L--3--3--3-3-3----3--5--|--L-------------------5--|
--------------------------|--------------------------|-----3--5--6--5---3------|


                         >                             >   
  Q    E  S S E  S S S S E     E  E  E  S S E  S S S S E   
----------------------------|-----------------------------|
----------------------------|-----------------------------|
--L----5--5-5-5--5-5-5-5-1--|--L--1--1--1-1-1--1-1-1-1-3--|
----------------------------|-----------------------------|


                          >                             
  E  E  E  S S E  S S S S E     E  E  E  E  E.  E.  E   
-----------------------------|-------------------------|
-----------------------------|-------------------------|
--L--3--3--3-3-3--3-3-3-3-5--|--L----------------------|
-----------------------------|-----3--5--6--5---3---0--|


  Fill                                                      
  E    E  E  S E  E  E  S E     E  E  S E  E  E  S E  E   
-----------------------------|---------------------------|
-----------------------------|---------------------------|
-----------------------------|---------------------------|
--0----0--0--0-0--0--0--0-0--|--0--0--0-0--0--0--0-0--0--|


  Verso                                                      
  E     E  E  S E  E  E  S E     E  E  S E  E.  S  S S S E   
------------------------------|-----------------------------|
------------------------------|-----------------------------|
------------------------------|----------------------5-5-5--|
--0-----0--0--0-0--0--0--0-0--|--0--0--0-0--0---5S-7--------|


  E  E  E  S E  E  E  S E     E.  S E.  S E.  S E.  S  
---------------------------|--------------------------|
---------------------------|--------------------------|
---------------------------|--------------1---x-3---x-|
--0--0--0--0-0--0--0--0-0--|--3---x-5---x-------------|


  E  E  E  S E  E  E  S E     E  E  S E  E.  S  S S S E   
---------------------------|-----------------------------|
---------------------------|-----------------------------|
---------------------------|----------------------5-5-5--|
--0--0--0--0-0--0--0--0-0--|--0--0--0-0--0---5S-7--------|


  E  E  E  S E  E  E  S E     E.  S E.  S E.  S E.  S  
---------------------------|--------------------------|
---------------------------|--------------------------|
---------------------------|--------------1---x-3---x-|
--0--0--0--0-0--0--0--0-0--|--3---x-5---x-------------|


  Coro A                                               
  >                     >                          >   
  Q      E  S S Q    E  E     E  E  E  S S Q    E  E   
---------------------------|--------------------------|
---------------------------|--------------------------|
--5------5--5-5-5----5--1--|--L--1--1--1-1-1----1--3--|
---------------------------|--------------------------|


                       >                         >   
  E  E  E  S S Q    E  E     E  E  E  E  E.  E.  E   
--------------------------|-------------------------|
--------------------------|-------------------------|
--L--3--3--3-3-3----3--5--|--L-------------------5--|
--------------------------|-----3--5--6--5---3------|


                         >                             >   
  Q    E  S S E  S S S S E     E  E  E  S S E  S S S S E   
----------------------------|-----------------------------|
----------------------------|-----------------------------|
--L----5--5-5-5--5-5-5-5-1--|--L--1--1--1-1-1--1-1-1-1-3--|
----------------------------|-----------------------------|


                          >                         >   
  E  E  E  S S E  S S S S E     E  E  E  E  E.  E.  E   
-----------------------------|-------------------------|
-----------------------------|-------------------------|
--L--3--3--3-3-3--3-3-3-3-5--|--L-------------------5--|
-----------------------------|-----3--5--6--5---3------|


  Coro B                                               
                        >                          >   
  Q      E  S S Q    E  E     E  E  E  S S Q    E  E   
---------------------------|--------------------------|
---------------------------|--------------------------|
--L------5--5-5-5----5--1--|--L--1--1--1-1-1----1--3--|
---------------------------|--------------------------|


                       >                         >   
  E  E  E  S S Q    E  E     E  E  E  E  E.  E.  E   
--------------------------|-------------------------|
--------------------------|-------------------------|
--L--3--3--3-3-3----3--5--|--L-------------------5--|
--------------------------|-----3--5--6--5---3------|


                         >                             >   
  Q    E  S S E  S S S S E     E  E  E  S S E  S S S S E   
----------------------------|-----------------------------|
----------------------------|-----------------------------|
--L----5--5-5-5--5-5-5-5-1--|--L--1--1--1-1-1--1-1-1-1-3--|
----------------------------|-----------------------------|


                          >                             
  E  E  E  S S E  S S S S E     E  E  E  E  E.  E.  E   
-----------------------------|-------------------------|
-----------------------------|-------------------------|
--L--3--3--3-3-3--3-3-3-3-5--|--L----------------------|
-----------------------------|-----3--5--6--5---3---0--|


  Break                                                   
  E     E  E  S E  S E  Q       S E  S E  S E  S E  Q     
-----------------------------|---------------------------|
-----------------------------|---------------------------|
-----------------------------|---------------------------|
--0-----0--0--0-0--0-0-------|--0-0--0-0--0-0--0-0-------|


  E  E  E  S E  S E  Q       S E  S E  S E  S E  Q     
--------------------------|---------------------------|
--------------------------|---------------------------|
--------------------------|---------------------------|
--0--0--0--0-0--0-0-------|--0-0--0-0--0-0--0-0-------|


  Puente                                                   
  E      E  E  S E  S E  Q       S E  S E  S E  S E  Q     
------------------------------|---------------------------|
------------------------------|---------------------------|
------------------------------|---------------------------|
--0------0--0--0-0--0-0-------|--0-0--0-0--0-0--0-0-------|


  E  E  E  S E  S E  Q       S E  S E  S E  S E  Q     
--------------------------|---------------------------|
--------------------------|---------------------------|
--------------------------|---------------------------|
--0--0--0--0-0--0-0-------|--0-0--0-0--0-0--0-0-------|


  Solo Adrian Smith                                                    
  E                 E  E  S E  E  E  S E     E  E  E  S E  E  E  S E   
------------------------------------------|---------------------------|
------------------------------------------|---------------------------|
--1-----------------1--1--x---------------|--3--3--3--x---------------|
----------------------------0--0--0--x-0--|-------------0--0--0--x-0--|


  E  E  E  S E  E  E  S E     E  E  E  S E  E  E  S E   
---------------------------|---------------------------|
---------------------------|---------------------------|
--1--1--1--x---------------|--3--3--3--x-5--5--5--x-5--|
-------------0--0--0--x-0--|---------------------------|


  E  E  E  S E  E  E  S E     E  E  E  S E  E  E  S E   
---------------------------|---------------------------|
---------------------------|---------------------------|
--1--1--1--x---------------|--3--3--3--x---------------|
-------------0--0--0--x-0--|-------------0--0--0--x-0--|


  E  E  E  S E  E  E  S E     E  E  E  S E  E  S S S S S  
---------------------------|-----------------------------|
---------------------------|-----------------------------|
--1--1--1--x---------------|--3--3--3--x-3--3--3-3-3-3-3-|
-------------0--0--0--x-0--|-----------------------------|


  Coro A                                               
  >                     >                          >   
  Q      E  S S Q    E  E     E  E  E  S S Q    E  E   
---------------------------|--------------------------|
---------------------------|--------------------------|
--5------5--5-5-5----5--1--|--L--1--1--1-1-1----1--3--|
---------------------------|--------------------------|


                       >                         >   
  E  E  E  S S Q    E  E     E  E  E  E  E.  E.  E   
--------------------------|-------------------------|
--------------------------|-------------------------|
--L--3--3--3-3-3----3--5--|--L-------------------5--|
--------------------------|-----3--5--6--5---3------|


                         >                             >   
  Q    E  S S E  S S S S E     E  E  E  S S E  S S S S E   
----------------------------|-----------------------------|
----------------------------|-----------------------------|
--L----5--5-5-5--5-5-5-5-1--|--L--1--1--1-1-1--1-1-1-1-3--|
----------------------------|-----------------------------|


                          >                         >   
  E  E  E  S S E  S S S S E     E  E  E  E  E.  E.  E   
-----------------------------|-------------------------|
-----------------------------|-------------------------|
--L--3--3--3-3-3--3-3-3-3-5--|--L-------------------5--|
-----------------------------|-----3--5--6--5---3------|


  Coro B                                               
                        >                          >   
  Q      E  S S Q    E  E     E  E  E  S S Q    E  E   
---------------------------|--------------------------|
---------------------------|--------------------------|
--L------5--5-5-5----5--1--|--L--1--1--1-1-1----1--3--|
---------------------------|--------------------------|


                       >                         >   
  E  E  E  S S Q    E  E     E  E  E  E  E.  E.  E   
--------------------------|-------------------------|
--------------------------|-------------------------|
--L--3--3--3-3-3----3--5--|--L-------------------5--|
--------------------------|-----3--5--6--5---3------|


                         >                             >   
  Q    E  S S E  S S S S E     E  E  E  S S E  S S S S E   
----------------------------|-----------------------------|
----------------------------|-----------------------------|
--L----5--5-5-5--5-5-5-5-1--|--L--1--1--1-1-1--1-1-1-1-3--|
----------------------------|-----------------------------|


                          >                         >   
  E  E  E  S S E  S S S S E     E  E  E  E  E.  E.  E   
-----------------------------|-------------------------|
-----------------------------|-------------------------|
--L--3--3--3-3-3--3-3-3-3-5--|--L-------------------5--|
-----------------------------|-----3--5--6--5---3------|


  Outro Coro                                               
                            >                          >   
  Q          E  S S Q    E  E     E  E  E  S S Q    E  E   
-------------------------------|--------------------------|
-------------------------------|--------------------------|
--L----------5--5-5-5----5--1--|--L--1--1--1-1-1----1--3--|
-------------------------------|--------------------------|


                       >                         >   
  E  E  E  S S Q    E  E     E  E  E  E  E.  E.  E   
--------------------------|-------------------------|
--------------------------|-------------------------|
--L--3--3--3-3-3----3--5--|--L-------------------5--|
--------------------------|-----3--5--6--5---3------|


                         >                             >   
  Q    E  S S E  S S S S E     E  E  E  S S E  S S S S E   
----------------------------|-----------------------------|
----------------------------|-----------------------------|
--L----5--5-5-5--5-5-5-5-1--|--L--1--1--1-1-1--1-1-1-1-3--|
----------------------------|-----------------------------|


                          >                                   
  E  E  E  S S E  S S S S E     E  E  E  E  E.  E.  Q    E    
-----------------------------|------------------------------||
-----------------------------|------------------------------||
--L--3--3--3-3-3--3-3-3-3-5--|--L---------------------------||
-----------------------------|-----3--5--6--5---3---0-------||




Duration Legend
---------------
W - whole
H - half
Q - quarter
E - 8th
S - 16th
T - 32nd
X - 64th
. - note dotted
|-n-|  - n-tuplets


Tablature Legend
----------------
L - tied note
x - dead note
g - grace note
(n) - ghost note
> - accentuded note
NH - natural harmonic
AH - artificial harmonic
TH - tapped harmonic
SH - semi harmonic
PH - pitch harmonic
h - hammer on
p - pull off
b - bend
br - bendRelease
pb - preBend
pbr - preBendRelease
brb - bendReleaseBend
\n/ - tremolo bar dip
\n - tremolo bar dive
-/n - tremolo bar Release up
/n\ - tremolo bar inverted dip
/n - tremolo bar return
-\n - tremolo bar Release down
S - shift slide
s - legato slide
/ -  slide into from below or out of upwards
\ -  slide into from above or out of downwards
~ - vibrato
W - wide vibrato
tr - trill
TP - tremolo picking
T - tapping
S - slap
P - pop
< - fade in
^ - brush up
v - brush down

            
            
Suggest correction
Creating personal tab
Creating personal tab
You can edit any tab online and save it as your Personal.

You can edit, replace or remove any tab part or add personal notes – all changes will be seen only by you.

Personal tabs can be accessed anytime from any device, even offline.
Learn more »
comments
print report bad tab
guest
You may want to rate the tab now too:
select rating
Wanna post a correction for this tab? Suggest correction