Oops, an error
Loading. Please wait.

Dolls Tab

3,260 views 3 this week
1 commentread comment
1 2 3 4 5
x 3
add to favorites
launch autoscroll
font size
0
reset
how to read this tab
guitar tuner
Autoscroll
slow
fast
+/-
esc
set tempo
stop
Help us to improve Ultimate-Guitar.com Take our survey!
×
Artist: Primal Scream
Song: Dolls
Album: Riot City Blues
Tabbed By: Indie Nation (Dan)


Main Riff

e---------------------------------------|
b---------------------------------------|
g--------------------2-4-2--------------|
d--------------2-2-4-0-0-0--------------|
a-2-2--2-4-2-4-0-0-0--------------------|
e-0-0--0-0-0-0--------------------------|

Chorus 

guitar 1
   F#5   A      E     A      F#5   A
e|------------------------------------------------|
B|-------2-2-2--------2-2-2--------2-2-2----------|
G|-------2-2-2--1-1-1-2-2-2--------2-2-2----------|
D|-4-4-4-2-2-2--2-2-2-2-2-2--4-4-4-2-2-2----------|
A|-4-4-4-0-0-0--2-2-2-0-0-0--4-4-4-0-0-0----------|
E|-2-2-2--------0-0-0--------2-2-2----------------|

guitar 2 
e|------------------------------------------------|
B|--2--(x 6)-----5--(x 6)-----12--(x 12)----------|
G|--4b-----------7b-----------14b-----------------|
D|------------------------------------------------|
A|------------------------------------------------|
E|------------------------------------------------|

guitar 1
   F#5   A      E     A      
e|--------------------------|
B|-------2-2-2--------2-2-2-|
G|-------2-2-2--1-1-1-2-2-2-|
D|-4-4-4-2-2-2--2-2-2-2-2-2-|
A|-4-4-4-0-0-0--2-2-2-0-0-0-|
E|-2-2-2--------0-0-0-------|

guitar 2 
e|--------------------------|
B|--2--(x 6)-----5--(x 6)---|
G|--4b-----------7b---------|
D|--------------------------|
A|--------------------------|
E|--------------------------|
Suggest correction
Give kudos to tab author, rate the tab!
1 2 3 4 5
comments
print report bad tab
1 comment total.
0 reply
music_power 10 Aug 19, 2006 10:52 AM

great tab man

guest
You may want to rate the tab now too:
select rating
Wanna post a correction for this tab? Suggest correction