Oops, an error
Loading. Please wait.

Swastika Eyes bass

version 2
version 2

Whole song

763 views 3 this week
no commentswrite comment
1 2 3 4 5
3 more votes to show rating
add to favorites
×
Save as Personal and add changes to this tab that will be seen only by you. Learn more ›
×
You can save this tab as Personal to edit and correct it or add notes. All changes will be seen only by you. Learn more »
launch autoscroll
font size
0
reset
guitar tuner
edit
Autoscroll
slow
fast
+/-
esc
set tempo
stop
primal scream-swastika eyes, from the "xtrmntr" record

standard tuning(e,a,d,g); count the tabs in roman numbers for the timeline, they change 
15time in the whole song.
the tune on the bass makes it a bit
difficult to hear the line, but it also makes a nice groove.
.. my 1st. tab, hope it works ^^

I
00:04                               8x
G:------------------------------------|
D:------------------------------------|
A:-5-5-5-5--5-5-5-5--5-5-5-5--5-5-5-5-|
E:------------------------------------|


II
00:33
G:----------------------------------  G:--------------------------------------|
D:----------------------------------  D:--------------------------------------|
A:-5-5-5-5-5-5-5-5--7-7-7--8-8-8-8-8  A:-5-5-5-5-5-5-5-5--7-7-7--5-5-5-5-5--3-|
E:----------------------------------  E:--------------------------------------|

G:----------------------------------  G:-------------------------------------|
D:----------------------------------  D:-------------------------5-5-5-------|
A:-5-5-5-5-5-5-5-5--7-7-7--8-8-8-8-8  A:-5-5-5-5-5-5-5-5--7-7-7--------------|
E:----------------------------------  E:-------------------------------------|

III
00:48                             2x                                       2x
G:----------------------------------  G:-------------------------------------|
D:-3-3-3-3-3-3-3-3-3-3-3-3--5-5-5---  D:------------------------------5-5-5--|
A:----------------------------------  A:-5-5-5-5--3--5-5-5--3--5-5-5---------|
E:----------------------------------  E:-------------------------------------|

                                  2x  only 1time, 2nd leads to the high sound
G:----------------------------------  G:-------------------------------------|
D:-3-3-3-3-3-3-3-3-3-3-3-3--5-5-5---  D:------------------------------5-5-5--|
A:----------------------------------  A:-5-5-5-5--3--5-5-5--3--5-5-5---------|
E:----------------------------------  E:-------------------------------------|
                                        2nd:
                                      G:------------------------------5-5-5--|
                                      D:-------------------------------------|
                                      A:-5-5-5-5--3--5-5-5--3--5-5-5---------|
                                      E:-------------------------------------|
III'
1:16
G:-5-5-5-5-5-5-5-5-5-5-5-5--3-3-3-3-3-3-3-12-12-12-12-12-12-12-12-12-12-------|
D:----------------------------------------------------------------------------|
A:----------------------------------------------------------------------5-5-5-|
E:----------------------------------------------------------------------------|



IV
1:24                              play until 1:51 ... the whole timeline
                                                      below the last tab
G:--------------------------------------|
D:----------3---------------------------|
A:-5-5-5-5-----5--3--5-5-5-5--0--3-3--5-|
E:--------------------------------------|

there are two little variations in the song,
first:

IV'
G:-------------------------------------|
D:----------3-----------------5-5-5----|
A:-5-5-5-5-----5--3--5-5-5-5-----------|
E:-------------------------------------|

G:----------------------------5-5-5----|
D:----------3--------------------------|
A:-5-5-5-5-----5--3--5-5-5-5-----------|
E:-------------------------------------|

and the second: it comes only 1time at the end

IV''
G:------------------|
D:----------3-------|
A:-5-5-5-5-----5--3-|
E:------------------|

Timeline:

0:04 I    1:16 III'   2:21 III'   4:22 III    5:06 III'
0:33 II   1:24 IV     2:28 IV'    4:51 III'   5:13 IV''
0:48 III  1:51 III    2:35 III'   4:59 IV'    6:03 IV until end
                      2:42 IV

that's it. have fun to play
r.l. 23.12.2011

            
            
Suggest correction
Creating personal tab
Creating personal tab
You can edit any tab online and save it as your Personal.

You can edit, replace or remove any tab part or add personal notes – all changes will be seen only by you.

Personal tabs can be accessed anytime from any device, even offline.
Learn more »
Give kudos to tab author, rate the tab!
1 2 3 4 5
comments
print report bad tab
guest
Wanna post a correction for this tab? Suggest correction