Oops, an error
Loading. Please wait.

Sweet Pretty Thing tab

64 views 1 this week
no commentswrite comment
1 2 3 4 5
3 more votes to show rating
add to favorites
×
Save as Personal and add changes to this tab that will be seen only by you. Learn more ›
×
You can save this tab as Personal to edit and correct it or add notes. All changes will be seen only by you. Learn more »
launch autoscroll
font size
0
reset
how to read this tab
guitar tuner
edit
Autoscroll
slow
fast
+/-
esc
set tempo
stop
Author
Difficulty
intro

E|----------------------------------------------------------------------------|
B|-7----7----7--------5(5)---------------------------------(5)/---------------|
G|-9b11-9b11-9b11r9/7-4(4)---------------------------------(4)/---------------|
D|-------------------------------------------------------------vvvvvvvvvvv----|
A|-------------------------------------------------------------vvvvvvvvvvv----|
E|-------------------------------------------------------------vvvvvvvvvvv----|
                                                 pick scrape:  ...........        


first verse

E|----------------------------------------------------------------------------|
B|----------------------------------------------------------------------------|
G|-------------------2----------4------4(4)------------4----4------4-----4----|
D|-4--------4--------2----2/4-----2----4(4)------------4----4--2/4---2h4------|
A|-2--------2--------0-----------------2(2)------------2----2-----------------|
E|----------------------------------------------------------------------------|

E|----------------------------------------------------------------------------|
B|----------------------------------------------------------------------------|
G|-------------------4---------4------------------------h4--4--4--4-----------|
D|-4--------4----2/4---4-4-4---2--------4(4)-----------(4)--4--4--4-----------|
A|-2--------2----------2-2-2------------2(2)-----------(2)--2--2--2-----------|
E|----------------------------------------------------------------------------|
                 PM:   .....


first pre-chorus

E|----------------------------------------------------------------------------|
B|-5-----------------7------------------3-----------10------------------------|
G|-7b9---------------9b11---------------5b7---------12b14---------------------|
D|----------------------------------------------------------------------------|
A|----------------------------------------------------------------------------|
E|----------------------------------------------------------------------------|

E|----------------------------------------------------------------------------|
B|----------------------------------------------------------------------------|
G|-2-----------------4(4)-----------------------------------------------------|
D|-2--------2--------4(4)-----------------------------------------------------|
A|-0--------2--------2(2)-----------------------------------------------------|
E|----------0-----------------------------------------------------------------|


first chorus

E|----------------------------------------------------------------------------|
B|--------------------------------------------5-7-7b9r7-5---------------------|
G|-4(4)----------------------------------------------------2(2)----------4(4)-|
D|-2(2)------------------------4(4)------------------------2(2)----------4(4)-|
A|-----------------------------2(2)------------------------0(0)----------2(2)-|
E|----------------------------------------------------------------------------|

E|---------------------------2----------------------------------2-------------|
B|---------------------------3----------------------------------3-------------|
G|------------------2--------2-------------------------2--------2-------------|
D|-2(2)-------------2-----------------2(2)-------------2----------------------|
A|-2(2)-------------0-----------------2(2)-------------0----------------------|
E|-0(0)-------------------------------0(0)------------------------------------|


second verse

E|----------------------------------------------------------------------------|
B|----------------------------------------------------------------------------|
G|-------------------2----------4------4(4)-------4----4----4------4-----4----|
D|-4--------4--------2----2/4-----2----4(4)-------4----4----4--2/4---2h4------|
A|-2--------2--------0-----------------2(2)-------4----2----2-----------------|
E|----------------------------------------------------------------------------|

E|----------------------------------------------------------------------------|
B|----------------------------------------------------------------------------|
G|-------------------4---------4------------------------h4--4--4--4-----------|
D|-4--------4----2/4---4-4-4---2--------4(4)-----------(4)--4--4--4-----------|
A|-2--------2----------2-2-2------------2(2)-----------(2)--2--2--2-----------|
E|----------------------------------------------------------------------------|
                 PM:   .....


second pre-chorus

E|----------------------------------------------------------------------------|
B|-5-----------------7------------------3-----------10------------------------|
G|-7b9---------------9b11---------------5b7---------12b14---------------------|
D|----------------------------------------------------------------------------|
A|----------------------------------------------------------------------------|
E|----------------------------------------------------------------------------|

E|----------------------------------------------------------------------------|
B|----------------------------------------------------------------------------|
G|-2-----------------4(4)-----------------------------------------------------|
D|-2--------2--------4(4)-----------------------------------------------------|
A|-0--------2--------2(2)-----------------------------------------------------|
E|----------0-----------------------------------------------------------------|


second chorus

E|----------------------------------------------------------------------------|
B|--------------------------------------------5-7-7b9r7-5---------------------|
G|-4(4)----------------------------------------------------2(2)----------4(4)-|
D|-2(2)------------------------4(4)------------------------2(2)----------4(4)-|
A|-----------------------------2(2)------------------------0(0)----------2(2)-|
E|----------------------------------------------------------------------------|

E|---------------------------2----------------------------------2-------------|
B|---------------------------3----------------------------------3-------------|
G|------------------2--------2-------------------------2--------2-------------|
D|-2(2)-------------2-----------------2(2)-------------2----------------------|
A|-2(2)-------------0-----------------2(2)-------------0----------------------|
E|-0(0)-------------------------------0(0)------------------------------------|


interlude

E|----------------------------------------------------------------------------|
B|----------------------------------------------------------------------------|
G|-2----------2---2------------2----------2---2-------------------------------|
D|-2----------2---2------------2----------2---2-------------------------------|
A|-----0--------------------------0-------------------------------------------|
E|----------------------------------------------------------------------------|

E|----------------------------------------------------------------------------|
B|----------------------------------------------------------------------------|
G|-2----------2---2------------2----------2---2-------------------------------|
D|-0---0------0---0------------0---0------0---0-------------------------------|
A|----------------------------------------------------------------------------|
E|----------------------------------------------------------------------------|


E|----------------------------------------------------------------------------|
B|----------------------------------------------------------------------------|
G|-2----------2---2------------2----------2---2-------------------------------|
D|-2----------2---2------------2----------2---2-------------------------------|
A|-----0--------------------------0-------------------------------------------|
E|----------------------------------------------------------------------------|


solo

E|----------------------------------------------------------------------------|
B|-3b-0------0-3-3b---0------0-3-3b---0------3-5-5b6---5b6---5b6r5-3-5--------|
G|----------------------------------------------------------------------------|
D|----------------------------------------------------------------------------|
A|----------------------------------------------------------------------------|
E|----------------------------------------------------------------------------|

E|-----------------------------------------------------5----------------------|
B|-3b-0------0-3-3b---0------0-3-3b---0------3-5-5b6------5b6r5-3-5-----------|
G|----------------------------------------------------------------------------|
D|----------------------------------------------------------------------------|
A|----------------------------------------------------------------------------|
E|----------------------------------------------------------------------------|

E|----------------------------------------------------------------------------|
B|-3b-0------0-3-3b---0------0-3-3b---0------3-5-5b6---5b6---5b6r5-3-5--------|
G|----------------------------------------------------------------------------|
D|----------------------------------------------------------------------------|
A|----------------------------------------------------------------------------|
E|----------------------------------------------------------------------------|

E|-----------------------------------------------5b6---5b6---5b6r5------------|
B|-3b-0------0-3-3b---0------0-3-3b---0------3-5-------------------3-5-3~~~~~~|
G|----------------------------------------------------------------------------|
D|----------------------------------------------------------------------------|
A|----------------------------------------------------------------------------|
E|----------------------------------------------------------------------------|

E|----------------------------------------------------------------------------|
B|-5-5-5b7------3-0-5---------------------------------------------------------|
G|----------------------------------------------------------------------------|
D|-------------------------vvvvvvvvvvv-7--------------------------------------|
A|-------------------------vvvvvvvvvvv0---------------------------------------|
E|-------------------------vvvvvvvvvvv----------------------------------------|
pick scrape (.) / PM (,):  ...........,,,

            
            
Suggest correction
Creating personal tab
Creating personal tab
You can edit any tab online and save it as your Personal.

You can edit, replace or remove any tab part or add personal notes – all changes will be seen only by you.

Personal tabs can be accessed anytime from any device, even offline.
Learn more »
Give kudos to tab author, rate the tab!
1 2 3 4 5
comments
print report bad tab
guest
You may want to rate the tab now too:
select rating
Wanna post a correction for this tab? Suggest correction