Oops, an error
Loading. Please wait.

Nunca Lo Hubiese Imaginado chords

14 views 1 this week
no commentswrite comment
1 2 3 4 5
3 more votes to show rating
add to favorites
×
Save as Personal and add changes to this tab that will be seen only by you. Learn more ›
×
You can save this tab as Personal to edit and correct it or add notes. All changes will be seen only by you. Learn more »
launch autoscroll
font size
0
reset
transpose
0
reset
simplify chords
display chords
guitar tuner
edit
Autoscroll
slow
fast
+/-
esc
set tempo
stop
Strumming
There is no strumming pattern for this song yet. and get +5 IQ
Hola amigos, aqui les dejamos una muy buena cancion, ojala les guste
aguante PdP. Nos vemos en otra oportunidad, se despiden sus siempre
buenos amigos Camilop y Tms (sabe)


Intro:
 ------------------------------------------------------------
 ------------------------------------------------------------
 ------------------------------------------------------------
 ------------------------------------------------------------
 -----------------5-4-5---7-8-7-----------------5-4-5---7-8-7
 -0-5-4-5---8-7-8---------------0-5-4-5---8-7-8--------------


 ------7-----------------------------------------------------
 ------------------------------------------------------------
 --5-7-------------------------------------------------------
 ---------0--------------------------------------------------
 ------------3-4-5-------------------------------------------
 ------------------------------------------------------------

Dm7                       C        G7
   Tratando de mover el espejo sin perder
                 A#6       A7
   la imagen clara de mil copas llenas
Dm7                           C            G7
   de lejos entendi no hay distancia alguna
                A#6       A7
   boletos tengo y miles de fortunas

Intro.

Dm7                            C        G7
   la suerte que busque me la dio la vida
                    A#6       A7
   la vida que encontre me la dio la suerte
Dm7                       C        G7
   he vuelto a viajar por este camino
                    A#6       A7        A# A7
   la causa y la razon forman mi destino


   F                    G7add11
   nunca lo hubiese imaginado
                   A#
   lo hubiera sospechado
                     A#/B A#
   hoy vuelve a comenzar


Dm7                         C        G7
   recuerdas esa vez que vinimos a buscar mil dias mas
A#6           A7
   quien dice que no duele
Dm7                               C        G7
   te haz vuelto a lamentar por este camino
                  A#6          A7        A# A7
   la causa y la razon forman tu destino


   F                    G7add11
   nunca lo hubiese imaginado
                   A#
   lo hubiera sospechado
                     A#/B A#
   hoy vuelve a comenzar


   F                    G7
   nunca lo hubiese imaginado
                   A#
   lo hubiera sospechado
                     A#/B A#
   hoy vuelve a comenzar

Acordes:
A#6     : xx3333
G7add11 : 333001
A#/B    : x23331

            
            
Suggest correction
Creating personal tab
Creating personal tab
You can edit any tab online and save it as your Personal.

You can edit, replace or remove any tab part or add personal notes – all changes will be seen only by you.

Personal tabs can be accessed anytime from any device, even offline.
Learn more »
Give kudos to tab author, rate the tab!
1 2 3 4 5
comments
print report bad tab
guest
Wanna post a correction for this tab? Suggest correction