Oops, an error
Loading. Please wait.

This Life Tab

2,959 views 3 this week
no commentswrite comment
1 2 3 4 5
please rate
add to favorites
launch autoscroll
font size
0
reset
how to read this tab
guitar tuner
Autoscroll
slow
fast
+/-
esc
set tempo
stop
Help us to improve Ultimate-Guitar.com Take our survey!
×
        BITCHIN' TABS

          URL: www.angelfire.com/goth/btab/
	EMAIL: btabmaster@hotmail.com

        THIS IS AN EXCLUSIVE TAB TO "BITCHIN' TABS"

 ----------------------------------------------------------------------------------------------

	     SONG: This Life
	     BAND: Primer 55
	    ALBUM: (THE) New Release
   TRANSCRIBED BY: Chris Frazier (btabmaster@hotmail.com)
	     DATE: 06-29-2K1

 ----------------------------------------------------------------------------------------------

	TUNING: Down 1 Step (D G C F A D)

     Key:
     /  = slide down fretboard
     \  = slide up fretboard
     PM = palm mute

     Riff 1:
    D|------------------------------------------------------------------------------------|
    A|------------------------------------------------------------------------------------|
    F|------------------------------------------------------------------------------------|
    C|-5-5-5-5-5-5-5-5-5-5--2-2-2-2-2-2-2-2-2-2--5-5-5-5-5-5-5-5-5/7--2-2-2-2-2-2-2-2-2-2-|
    G|-5-5-5-5-5-5-5-5-5-5--2-2-2-2-2-2-2-2-2-2--5-5-5-5-5-5-5-5-5/7--2-2-2-2-2-2-2-2-2-2-|
    D|-3-3-3-3-3-3-3-3-3-3--0-0-0-0-0-0-0-0-0-0--3-3-3-3-3-3-3-3-3/5--0-0-0-0-0-0-0-0-0-0-|

     Riff 2: (w/ flanger and reverb)
    D|---------------------------------|
    A|-------10-8------10-8-11-10------|
    F|-11-9-------7-9--------------9---|
    C|---------------------------------|
    G|---------------------------------|
    D|---------------------------------|

     Riff 3: (w/ flanger and reverb)
    D|------------------|
    A|------------------|
    F|------------------|
    C|------------------|
    G|-/10------\7------|
    D|------------------|

     Riff 4:
    D|--------|
    A|--------|
    F|--------|
    C|-5-6--6-|
    G|-3-4--4-|
    D|-3-4--4-|
     PM  -

     Riff 5: (w/ flanger and reverb)
    D|------------------------------------------------------------|
    A|-------10-8------10-8-11-10----------------------11-10------|
    F|-11-9-------7-9--------------9-12-7-9--7-9--7-9--------7--9-|
    C|------------------------------------------------------------|
    G|------------------------------------------------------------|
    D|------------------------------------------------------------|
Suggest correction
Give kudos to tab author, rate the tab!
1 2 3 4 5
comments
print report bad tab
guest
You may want to rate the tab now too:
select rating
Please do not post tabs as comments. Select "correction" instead!