Oops, an error
Loading. Please wait.

Antipop Tab

version 2
version 2

Whole song

Interactive

2,848 views 1 this week
no commentswrite comment
1 2 3 4 5
x 3
add to favorites
launch autoscroll
font size
0
reset
how to read this tab
guitar tuner
Autoscroll
slow
fast
+/-
esc
set tempo
stop
Help us to improve Ultimate-Guitar.com Take our survey!
×
Author
Primus - The Antipop

All the other version online are either incomplete and incorrect,
so heres the COMPLETE and CORRECT tab play Primus' THE ANTI POP



intro- bells and crows and rain and shit 
( e|--2----0-- )

guitar w/ flange or something
e|--------------
b|--------------
g|----------5--- repeat a few times
d|-7--4---4-5---
a|-7--4---4-3---
E|-5--2---2-----

e|-------------------------------------
b|-------------------------------------
g|---------------------------------5---
d|-4-4---4-4---4-4---4-4---4-4---4-5--- x2
a|-4-4---4-4---4-4---4-4---4-4---4-3---
E|-2-2---2-2---2-2---2-2---2-2---2-----

e|----------------------
b|----------------------
g|----------------------
d|-4-4----4-4----4-4----
a|-4-4----4-4----4-4----
E|-2-2----2-2----2-2----

e|--------------------------------------
b|--------------------------------------
g|-/11-/14----14-15-14-15-14-11-18/17---
d|--------------------------------------
a|-/9--/12----12-13-12-13-12-9--16/15---
E|--------------------------------------


e|--------------------------------------
b|--------------------------------------
g|-/11-/14----14-15-14-15-14-11-11/9---
d|--------------------------------------
a|-/9--/12----12-13-12-13-12-9--9-/7---
E|--------------------------------------

Verse 1 (nothing here, bass plays only)


Guitar comes in on B with wah wah, volume knob turned down
e|-----------------------------------------------------------
b|-----------------------------------------------------------
g|-4p2---4-4p2----4-4-4p2---4-4p2---2-4-6p4---6-6p4---6p4----
d|-----4-------4----------4-------4---------4-------4-----4--
a|-----------------------------------------------------------
E|-----------------------------------------------------------

e|---------------------
b|-3---4---5---6------
g|-5b7-6b8-7b9-8b10-----
d|---------------------
a|----------------------
E|---------------------


Chorus
e|---------------------------------------
b|---------------------------------------
g|-11\---14\-----11---14/-15-14/-15------
d|--------------------------------------- x6
a|-9\----12\-----9----12/-13-12/-13------
E|---------------------------------------


Verse 2, same as before


Guitar comes in on B with wah wah, volume knob turned down
e|-----------------------------------------------------------
b|-----------------------------------------------------------
g|-4p2---4-4p2----4-4-4p2---4-4p2---2-4-6p4---6-6p4---6p4----
d|-----4-------4----------4-------4---------4-------4-----4--
a|-----------------------------------------------------------
E|-----------------------------------------------------------

e|---------------------
b|-3---4---5---6------
g|-5b7-6b8-7b9-8b10-----
d|---------------------
a|----------------------
E|---------------------

Chorus
e|---------------------------------------
b|---------------------------------------
g|-11\---14\-----11---14/-15-14/-15------ x4
d|--------------------------------------- 
a|-9\----12\-----9----12/-13-12/-13------
E|---------------------------------------


Bridge
e|---------------------------------------------------------------------
b|---------------------------------------------------------------------
g|---------------------------------------------------------------------
d|-4p0-4p0-4p0-4p0-4p0-4p0-4p0-4p0-3p0-3p0-3p0-3p0-2p0-2p0-2p0-2p0-----
a|---------------------------------------------------------------------
E|---------------------------------------------------------------------

e|---------------------------------------------------------------------
b|---------------------------------------------------------------------
g|---------------------------------------------------------------------
d|-4p0-4p0-4p0-4p0-4p0-4p0-4p0-4p0-7p0-7p0-7p0-7p0-9p0-9p0-9p0-9p0-----
a|---------------------------------------------------------------------
E|---------------------------------------------------------------------

e|---------------------------------------------------------------------
b|---------------------------------------------------------------------
g|---------------------------------------------------------------------
d|-4p0-4p0-4p0-4p0-4p0-4p0-4p0-4p0-3p0-3p0-3p0-3p0-2p0-2p0-2p0-2p0-----
a|---------------------------------------------------------------------
E|--------------------------------------------------------------------

e|----------------------------------6b7-4b5----
b|--------------------------------------------
g|----------------------------------------------
d|-4p0-4p0-4p0-4p0-4p0-4p0-4p0-4p0-------------
a|---------------------------------------------
E|-----------------------------------------------

                         / natural harmonics 
e|------------------------------------------------------
b|--------------------<3>------------------------------
g|-----------------5--<3>-------------------------------
d|-7--4---7--4--4--5--<3>---7--4----\x----------------
a|-7--4---7--4--4--3--------7--4----\x-pick scrape-
E|-5--2---5--2--2-----------5--2----\x----------------


                        
alright at this part there are 2 guitar tracks drenched with delay and feedback
but this is the basic jist of it:
e|-------------------------------------
b|-------------------------------------
g|------------------------9----11------
d|-------11-8----------------------4----
a|-9b12--9--6--6-7-6-7-9--7----9---4---- feedback here, also you can press
E|---------------------------------2---- your whammy bar down and rumble the strings a bit

Verse #3

e|-----------------------------------------
b|------------------------------------------
g|------------------------------------------
d|-4-4---4-4---4-4---4-4---4-4---4-4---4-4--
a|-4-4---4-4---4-4---4-4---4-4---4-4---4-4--
E|-2-2---2-2---2-2---2-2---2-2---2-2---2-2--

e|-------------------------------------------10----11----12----13----
b|-------6-----6--8--6-------6-------8-------13b15-14b16-15b17-16b18-
g|----------8-----------8----------------10--------------------------
d|------------------------9------------------------------------------
a|-------------------------------------------------------------------
E|-------------------------------------------------------------------
Pushing misinformation...

Chorus
e|---------------------------------------
b|---------------------------------------
g|-11---14-----11---14-15-14-15---------- 
d|--------------------------------------- a lot of times
a|-9----12-----9----12-13-12-13----------
E|---------------------------------------

outro
e|--------
b|--------
g|--------
d|-7--4---
a|-7--4---
E|-5--2---

BAM there you have it
g_r3v@hotmail.com
Suggest correction
Give kudos to tab author, rate the tab!
1 2 3 4 5
comments
print report bad tab
guest
You may want to rate the tab now too:
select rating
Wanna post a correction for this tab? Suggest correction