Oops, an error
Loading. Please wait.

Chastising Of Renegade Bass Tab

version 1
version 1

Whole song

1,982 views 3 this week
no commentswrite comment
1 2 3 4 5
please rate
add to favorites
launch autoscroll
font size
0
reset
guitar tuner
Autoscroll
slow
fast
+/-
esc
set tempo
stop
Help us to improve Ultimate-Guitar.com Take our survey!
×
Author
Intro

C -9-10/9-9-----9-10/9-9-----9-10/9-9-----9-10/9-12-10-|
G -8--9/8-8-----8- 9/8-8-----8- 9/8-8-----8--9/8-11- 9-|
D -9-10/9-9-----9-10/9-9-----9-10/9-9-----9-10/9-12-10-|
A -----------------------------------------------------|
E -----------------------------------------------------|
B -----------------------------------------------------|

Chorus

C -9-10/9-9-----9-10/9-9----------9-10/9-9-----9-10/9-12-10-|
G -8- 9/8-8-----8- 9/8-8----------8- 9/8-8-----8- 9/8-11- 9-|
D -9-10/9-9-----9-10/9-9----------9-10/9-9-----9-10/9-12-10-|
A ----------------------------------------------------------|
E -----------------------5-7H/9-9---------------------------|
B ----------------------------------------------------------|

Verse

     P                    P
C -------------------------------|
G ---0---------------------------|
D ------------------------0------|
A -------------------------------|
E -------------------------------|
B -8---8\9H-8-X-X-X-X-X-X----3/8-|
   S   S    S S S S S S S    S


     P                                   P
C ---------------------------------------------|
G ---0-----------------------------------------|
D ---------------------------------------0-----|
A ---------------------------------------------|
E -7---7\8H------------------------------------|
B ----------7-7-8---8\9H/8---X-X-X-X-X-X---3/8-|
   S   S    S S S   S    S   S S S S S S   S

Interlude

C ----------------------------------------------|
G ----------------------------------------------|
D ----------------------------------------------|
A -------------5-6H---4\5H-5-6------------------|
E -----4---5-6-----------------4\5H-5-6---------|
B -2-3----------------------------------2-2-2-2-|
   S S S   S S S      S    S S S    S S S S S S


End Jam (play this riff, and add your own fills, also just move it up
an octave near the end)

C ------------------------------|
G ------------------------------|
D ------------------------------|
A ------------------------------|
E ------------------------------|
B -2-2-2-2---2-2-2-2----2-2-2-2-|
Suggest correction
Give kudos to tab author, rate the tab!
1 2 3 4 5
comments
print report bad tab
guest
You may want to rate the tab now too:
select rating
Please do not post tabs as comments. Select "correction" instead!