Oops, an error
Loading. Please wait.

De Anza Jig Bass Tab

version 4
version 4

Whole song

Interactive

1,890 views 3 this week
no commentswrite comment
1 2 3 4 5
accurate
x 5
add to favorites
launch autoscroll
font size
0
reset
guitar tuner
Autoscroll
slow
fast
+/-
esc
set tempo
stop
Help us to improve Ultimate-Guitar.com Take our survey!
×
Author
here is how it goes,I have seen this live so,I am right.

Rate this tab,
G|:-------9999-7----9999-7--------------------|
D|:-----5-------10--------10------------------|
A|:--2/5----------10---------10--5-5-5-7-5----|
E|:-3-----------------------------------------|

G|:------9999-7------9-7----------------------|
D|:-----5------10-------10-9-7----------------|
A|:--2/5---------10-----------10-5/7/3--------|
E|:-3-----------------------------------------|
 
G|:---------|[riff variation]-----------------|
D|:---------|---------------------------------|
A|:-0h3--3--|-0h3--3-----2--------------------|
E|:----3--3-|----3---3-5----------------------|
 
outro riff
G|:--0h9-7------------------------------------|
D|:-------10-9-7------------------------------|
A|:--------------10-5/7/3-3-------------------|
E|:----------------------3-3------------------|

Rate this tab,peace

Will-eh
Suggest correction
comments
print report bad tab
guest
You may want to rate the tab now too:
select rating
Wanna post a correction for this tab? Suggest correction