Oops, an error
Loading. Please wait.

Devil Went Down To Georgia Tab

20,727 views 21 this week
no commentswrite comment
1 2 3 4 5
accurate
x 3
add to favorites
launch autoscroll
font size
0
reset
how to read this tab
guitar tuner
Autoscroll
slow
fast
+/-
esc
set tempo
stop
Help us to improve Ultimate-Guitar.com Take our survey!
×
>Primus
>Devil Went Down To Georgia (enhanced cd)
>This is the way I play it and to me it sounds right.
>
>Intro
>E-------------------------------|
>B----9------9---15^-13-11-------|
>G----8------8---14^-12-10-------|
>D-------------------------------|
>A-------------------------------|
>D-------------------------------|
>
>Fig1  D            C                                 D
>E-------------------------------------------------------|
>B----------------------------------------------------3--|
>G--7777777777--55555555555---------------------------2--|
>D--7777777777--55555555555---------------------------0--|
>A--5555555555--33333333333-----5-3-1-0-----------0-3----|
>D-----------------------------------------5-3-0---------|
>
>Fig2 A  C  D "Oh Let Me Tell You What" "My Names Johnny"
>E-----------------------------------|
>B----------3------------------------|
>G----2-----2------------------------|
>D----2--2--0------------------------|
>A----0--3---------------------------|
>D-----------------------------------|
>
>Fig3 "Johnny Rosin Up Your Bow"
>E-----------------------------------------------------------------|
>B-----------------------------------------------------------------|
>G---77777777--55555555--------------777777777-777777777--55555555-|
>D---77777777--55555555--5555555555--777777777-777777777--55555555-|
>A---55555555--33333333--5555555555--555555555-555555555--33333333-|
>D-----------------------5555555555--------------------------------|
>
>   A   G F E D  "...Devil Gets Your Soul"
>E-------------------|
>B-------------------|
>G--2----------------|
>D--2---5-3-2-0------|
>A--0---5-3-2-0------|
>D------5-3-2-0------|
>
>Fig4 "Sounded Just Like This." Devils Band playing
>E----------------------------------------------|
>B--1515151515-1818181818-1717171717-1616161616-|
>G----------------------------------------------|
>D----------------------------------------------|
>A----------------------------------------------|
>D----------------------------------------------|
>
>   D F E G  D F E Eb
>E--------------------|
>B--------------------|
>G--------------------| repeat 7 times then chords A C D, A C D
>D--0-3-2-5--0-3-2-1--|                                   "MNJ" part
>A--0-3-2-5--0-3-2-1--| Heavy Distortion
>D--0-3-2-5--0-3-2-1--|
>
>Fig5 "Fire On The Mountain...."
>E---------------------------------------------|
>B---------------------------------------------|
>G--7----7-7---5----5-5----7----7-7---5----5-5-|
>D--7----7-7---5----5-5----7----7-7---5----5-5-|
>A--5----5-5---3----3-3----5----5-5---3----3-3-|
>D---------------------------------------------|
>
>Fig6 Johnny Playing
>Chords D C D C D C A A A then end with "My Name Is Johnny" part twice
>
>Fig 7 chords D C D C D C
>  ending
>E---------------------------------------------------|
>B----------------------------------------------3-3--|
>G--7-5-3-2--7-5-3-2--7-5-3-2--7-5-3-2----------2-2--|
>D--7-5-3-2--7-5-3-2--7-5-3-2--7-5-3-2---5-4-0--0-0--|
>A--5-3-1-0--5-3-1-0--5-3-1-0--5-3-1-0---5-4-0-------|
>D---------------------------------------5-4-0-------|
>
>Intro
>Fig1 x 1
>Fig2 x 2
>Fig3 x 1
>Fig1 x 1
>Fig4 x 1
>Fig5 x 1
>Fig6 x 1
>Fig5 x 1
>Fig7(chords)with ending
>
>Just listen to the song or get the lyrics and its easier to figure out.
>                           PRIMUS SUCKS!!!!!!!!!!!
Suggest correction
Give kudos to tab author, rate the tab!
1 2 3 4 5
comments
print report bad tab
guest
You may want to rate the tab now too:
select rating
Please do not post tabs as comments. Select "correction" instead!