Oops, an error
Loading. Please wait.

Eternal Consumption Engine Tab

1,124 views 1 this week
no commentswrite comment
1 2 3 4 5
1 last vote to show rating
add to favorites
launch autoscroll
font size
0
reset
how to read this tab
guitar tuner
Autoscroll
slow
fast
+/-
esc
set tempo
stop
Help us to improve Ultimate-Guitar.com Take our survey!
×
Author
Difficulty
novice
Primus, Eternal consumption engine

The bass is of course in
some ways the base instrument
or the main instrument in this
song, but also several other
primus songs. The guitar is
Important too though, so here 
is the tab. Tuning: EADGBe


Intro 0:10

e|-----------------------|
B|-----------------------|
G|-4--4--4--4--4--4--4--4|
D|-3--3--3--3--3--3--3--3|
A|-----------------------|
E|-----------------------| X2

e|-----------------------|
B|-----------------------|
G|-6--6--6--6--6--6--6--6|
D|-5--5--5--5--5--5--5--5|
A|-----------------------|
E|-----------------------| X2

Then you play these two riffs
two times after each other
before we come to another part
at 0:39

e|--------------------|
B|--------------------|
G|-------------1-1----|
D|-3-3-3-3-3-3-3-3----|
A|--------------------|
E|--------------------|

e|--------------------|
B|--------------------|
G|---------4s7-5s8-6s9|
D|-3-3-3-3------------|
A|--------------------|
E|--------------------|

e|--------------------|
B|-9------------------|
G|--------------------|
D|--------------------|
A|--------------------|
E|--------------------|

Then play the same riff as
you did in the intro. I 
think it`s about the same.
After this you move over 
to the verse wich starts 
at 0:54. 

"Eternal consumption engine"

e|-0---------------------------|
B|-4---------------------------|
G|-5--6--6--6--6--6--6--6--6--6|
D|----5--5--5--5--5--5--5--5--5|
A|-----------------------------|
E|-----------------------------|

e|--------------------|
B|--------------------|
G|--6--6--6--6--6--6--|
D|--5--5--5--5--5--5--|
A|--------------------|
E|--------------------| X5

Now you`ve made your way through 
the verse, and is now at 1:31 in 
the song. This new part is almost
the same as you just played. 

e|--------------------|
B|--------------------|
G|--6--6--6--6--6--6--|
D|--5--5--5--5--5--5--|
A|--------------------|
E|--------------------|

You play this untill you
come to what i`d like to 
call the chorus (at least
that`s what i think it is)

1:46

e|--------------------|
B|--------------------|
G|-5-5-5-5-5-5-5-5----|
D|-5-5-5-5-5-5-5-5----|
A|--------------------|
E|--------------------|

e|--------------------|
B|--------------------|
G|-6-6-6-6-6-6-6-6----|
D|-6-6-6-6-6-6-6-6----|
A|--------------------|
E|--------------------| Both riffs X 4


Autro  "Everything`s made in china"

e|--------------------|
B|--------------------|
G|--5-5-6-6-5-5-6-6---|
D|--5-5-6-6-5-5-6-6---|
A|--------------------|
E|--------------------|X2

That was the end. Hope you 
enjoyed it. I guess it`s 
a pretty easy tab to learn
if you have some experience
playing.








Suggest correction
Give kudos to tab author, rate the tab!
1 2 3 4 5
comments
print report bad tab
guest
You may want to rate the tab now too:
select rating
Wanna post a correction for this tab? Suggest correction