Oops, an error
Loading. Please wait.

Eyes Of The Squirrel Bass Tab

1,876 views 1 this week
2 commentsread comments
1 2 3 4 5
2 more votes to show rating
add to favorites
launch autoscroll
font size
0
reset
guitar tuner
Autoscroll
slow
fast
+/-
esc
set tempo
stop
Help us to improve Ultimate-Guitar.com Take our survey!
×
Author
Difficulty
intermediate
I wasn't too sure about it, I watched it live and figured I should try to tab it cos it 
isn't here yet.

Intro:
Didn't catch what it was on the album, when they play it live it's a little sweet improv anyway.

Riff:
G -----------------|
D ----------9---11-|
A -0-9h-10h--------|
E -----------10----|

The 0-9h-10h on A is done very quick.

Fill (every second time):
G -------9-11h-12-11-9---------------------------|
D -9-11h--------------11-9h-9-11-9-11-9-9-11h----|
A -----------------------------------------------|
E -----------------------------------------------|

Not sure how many times you do that last bit (the last section when it goes back onto D
string), but you definitely finish on 11 and start the main riff back again.

Improv section/Ending:
The improv just circulates around the ninth fret and eleven fret region of the D string.
The ending goes:
G ---------------------------------|
D ----------9---11--9-11h-9-11h-11-|
A -0-9h-10h----------------------9-|
E -----------10--------------------|

I hope this helps someone else to build a better tab of this :D
Suggest correction
Give kudos to tab author, rate the tab!
1 2 3 4 5
comments
print report bad tab
2 comments total.
0 reply
batboybaines 10 Jul 09, 2014 01:33 PM

im sorry but this could be the worst tab ive evere seen

0 reply
batboybaines 10 Jul 09, 2014 01:33 PM

Lack of formatting. Lack of accuracy. Tab incomplete. Clearly wrong.

guest
You may want to rate the tab now too:
select rating
Wanna post a correction for this tab? Suggest correction