Oops, an error
Loading. Please wait.

Frizzle Fry bass

version 2
version 2

Whole song

Interactive

by Primus
19,042 views 15 this week
5 commentsread comments
1 2 3 4 5
x 18
add to favorites
×
Save as Personal and add changes to this tab that will be seen only by you. Learn more ›
×
You can save this tab as Personal to edit and correct it or add notes. All changes will be seen only by you. Learn more »
launch autoscroll
font size
0
reset
guitar tuner
edit
Autoscroll
slow
fast
+/-
esc
set tempo
stop
Author
Primus-Frizzle fry
Tuning-EADG


G-77777777-----------|
D----------6p5-0-----|
A------------------5-|With Chorus I think
E---------------3/5--|


G-7-|
D-7-|with over drive.
A-5-|
E---|

Main Riff (verses)
G-----------8---------------7-----------------8------------------5-7---|
D-6p5-0-----8-----6p5-0-----7-------6p5-0-----8-------6p5-0------5-7---|
A---------5-6---5---------5-5-----5---------5-6-----5---------5--3-5---|
E------3/5---3/5-------3/5----3/5--------3/5-----3/5-------3/5---------|

"...take him away."
G--------------------------------|
D------3-----4-----5-----6-7-6-7-|
A-5---3-5---3-5---3-5---3--------|
E--4-5---4-5---4-5---4-5---------|

"..us all away!"
G------7-x---7-x-7----7----x-7-x---7-x-7----7----7----7-|
D6-----7-x---7-x-7----7----x-7-x---7-x-7----7----7----7-|
A-5----5-x---5-x-5----5----x-5-x---5-x-5----5----5----5-|
E--3/5----3/5------3/5--3/5-----3/5------3/5--3/5--3/5--|

G---------------------------|-4------------|
D-6------------6------------|--4-4/54-4-4--|
A--6-6/76-6-6--6-6/76-6-6---|---------6-5--|
E---------8-7----------8-7--|--------------|

just before fast part.
G-8-7-8-7-|
D-8-7-8-7-|
A-6-5-6-5-|
E---------|

Fast part (may want to use 3 fingers)
G-------------|--------------------------|--------------|
D-------------|--------------------------|--------------|
A-55555555535-|-999-101010-111111-121212-|---------33-5-|
E-------------|--------------------------|-33-44-55-----|
continued
G-------------------------| |------------------------------|
D-----3----4----5----6767-| |-----33----44----55---6767----|
A-5--3-5--3-5--309-5-----3| |-5--3--5--3--5--3--5-------5~-|
E--45---45---45---45------| |--45----45----45----45--------|

Outro
G-----------------------------|
D-6------------6------------6-|
A--6-6/76-6-6--6-6/76-6-6-----|
E---------8-7----------8-7--4-|

there,the other tab for this song was shit,so there you go,

Peace.Will-eh

            
            
Suggest correction
Creating personal tab
Creating personal tab
You can edit any tab online and save it as your Personal.

You can edit, replace or remove any tab part or add personal notes – all changes will be seen only by you.

Personal tabs can be accessed anytime from any device, even offline.
Learn more »
comments
print report bad tab
5 comments total. Showing first comments.
0 reply
harl91 373 Apr 12, 2006 04:15 PM

why did i give the other tab 5? this one is way better. Good Job

0 reply
Will-eh 221 Apr 12, 2006 04:38 PM

Thanks lol
The other one was sketchy man.you can take a vote back.
Peace will-eh
PS RATE IT EVERYONE

0 reply
Will-eh 221 May 12, 2006 06:53 PM

I saw this on Halucingenetics,and do tap harmonics for the intro on 7 & 8.

G|:------------8----------------5--------------8----------5-8-|
D|:-6p5p0------8-------6p5p0----5-----6p5p0----8-6p5p0----5-8-|
A|:------------6----------------7--------------6----------7-6-|
E|:------1/10----1/10-------1/10-1/10------1/10-------1/10----|

guest
You may want to rate the tab now too:
select rating
Wanna post a correction for this tab? Suggest correction