Oops, an error
Loading. Please wait.

Frizzle Fry bass

version 4
version 4

Whole song

Interactive

by Primus
652 views 1 this week
no commentswrite comment
1 2 3 4 5
x 3
add to favorites
×
Save as Personal and add changes to this tab that will be seen only by you. Learn more ›
×
You can save this tab as Personal to edit and correct it or add notes. All changes will be seen only by you. Learn more »
launch autoscroll
font size
0
reset
guitar tuner
edit
Autoscroll
slow
fast
+/-
esc
set tempo
stop
Author
Difficulty
Hello, since the other tabs weren't too good, I decided to tab this out for you guys.

Standard tuning: E A D G

  T
2(9)= Tapped Harmonic (hold the note, while tapping a note on the fret
  S = Slap                    indicated in brackets, with a T above it)
  P = Pop
  p = Pull-off
  h = Hammer-on
  / = Slide up
  \ = Slide down
  V = Flamenco downstroke


Intro: (the number of harmonics is not exact but you'll get the idea)

      T    T    T    T     T    T    T     T    T    T
G|--7(19)7(19)7(19)7(19)-8(20)8(20)8(20)-7(19)7(19)7(19)----------------7--|
D|----------------------------0----0----------0----0---------6p5-0---------|
A|----------------------------------------------------------------------5--|
E|------------------------------------------------------------------3/5----|
                                                             P   P  S

      T    T    T    T     T    T    T     T    T    T    T    T    T
G|--7(19)7(19)7(19)7(19)-8(20)8(20)8(20)-7(19)7(19)7(19)7(19)7(19)7(19)--|
D|---------------------------------0-----0----0--------------------------|
A|-----------------------------------------------------------------------|
E|-----------------------------------------------------------------------|


First verse: No bass


Pre-Chorus: (slightly mute the notes with your left hand)

    V
G|--7--------------------------------|
D|--7--------------------------------|
A|--5--------------------------------|
E|-----------/10\---/5\---/3\---/2\--|
              S      S     S    S


Chorus riff: play twice

                V                   V
G|--------------8-------------------7--------|
D|--6p5-0-----0-8------0-6p5-0----0-7-----0--|
A|--------------6-------------------5--------|
E|--------3/-------3/----------3/------3/----|
    P   P S   P    S   P P   P S  P    S  P

               V                  V   V
G|-------------8------------------5---7-----|
D|--6p5-0----0-8-----0-6p5-0----0-5---7-----|
A|-------------6------------------3---5-----|
E|--------3/------3/---------3/-------------|
    P   P S  P    S  P P   P S  P


Post-Chorus:

                 T    T    T    T    T
G|-------------7(19)7(19)7(19)7(19)7(19)--|
D|----------------------------------------|
A|----------------------------------------|
E|----------------------------------------|


Second verse: no bass


Pre-Chorus:

    V
G|--5-----------------------|
D|--5-----------------------|
A|--3-----------------------|
E|-----------/5\--/4\--/3\--|
             S     S    S


Repeat Chorus riff thrice, then:

               V                  V
G|-------------8------------------7-----|
D|--6p5-0----0-8-----0-6p5-0----0-7-----|
A|-------------6------------------5-----|
E|--------3/------3/---------3/---------|
    P   P S  P    S  P P   P S  P


Break:

    V                V            V            V            V V V V  V
G|--7----------------5------------6------------7------------8-9-8-9--7----|
D|--7----------------3------------4------------5------------6-7-6-7--7----|
A|--5--------5-----3------5-----3------5-----3------5-----3----------5----|
E|-------------4-5----------4-5----------4-5----------4-5-----------------|


Bridge:

G|--------------------------------------------------------------------|
D|--6p5-0----0-----0-----0-----0-----0-----0-----0-----0-----0-----0--|
A|--------------------------------------------------------------------|
E|--------3/---x-x---3/----x-x---3/----x-x---3/----x-x---3/----x-x----|
    P   P S  P S S P S   P S S P S   P S S P S   P S S P S   P S S P

G|---------------------------------|
D|------0-----0----0----0----0-----|
A|---------------------------------|
E|--3/----x-x---3/---3/---3/---3/--|
    S   P S S P S  P S  P S  P S

Repeat Chorus riff thrice, then:

               V                  V
G|-------------8------------------7-----|
D|--6p5-0----0-8-----0-6p5-0----0-7-----|
A|-------------6------------------5-----|
E|--------3/------3/---------3/---------|
    P   P S  P    S  P P   P S  P


Interlude: (With some effects)

G|---------------------------------------|
D|--6-----------------6------------------|
A|----6-6h7-6---6---6---6-6h7-6---6---6--|
E|------------8---7-------------8---7----|

G|---------------------------------------|
D|--------------------6------------------|
A|----6-6h7-6---6---6---6-6h7-6---6------|
E|--4---------8---7-------------8---7----|

               V                  V
G|-------------8------------------7--------|
D|--6p5-0----0-8-----0-6p5-0----0-7-----0--|
A|-------------6------------------5--------|
E|--------3/------3/---------3/------3/----|
    P   P S  P    S  P P   P S  P    S  P

               V                  V   V
G|-------------8------------------5---7-----|
D|--6p5-0----0-8-----0-6p5-0----0-5---7-----|
A|-------------6------------------3---5-----|
E|--------3/------3/---------3/-------------|
    P   P S  P    S  P P   P S  P

G|---------------------------------------|
D|--6-----------------6------------------|
A|----6-6h7-6---6---6---6-6h7-6---6---6--|
E|------------8---7-------------8---7----|

G|---------------------------------------|
D|--------------------6------------------|
A|----6-6h7-6---6---6---6-6h7-6---6---6--|
E|--4---------8---7-------------8---7----|


G|--------------------------------------------|
D|--/9--------------------9-------------------|
A|-----9-9h10-9----9----9---9-9h10-9----9-----|
E|--------------11---10--------------11---10--|

G|--------------------------------------------|
D|------------------------9-------------------|
A|-----9-9h10-9----9----9---9-9h10-9----9-----|
E|---7----------11---10--------------11---10--|

    V     V     V     V     V     V
G|--8-----7-----8-----7-----8-----7-----|
D|--8-----7-----8-----7-----8-----7-----|
A|--6-----5-----6-----5-----6-----5-----|
E|--------------------------------------|


Guitar solo:

G|-----------------------------|
D|-----------------------------|
A|--3h5-5-55-5-55-55-5-5-5-55--| x3
E|-----------------------------|

G|-----------------------------|
D|---------------444555666777--|
A|--3h5-5-5-5-55---------------| x1
E|-----------------------------|

G|-----------------------------|
D|---------------44------------|
A|--3h5-5-5-5-55---3h5-3h5-55--| x3
E|-----------------------------|

G|-----------------------------|
D|-----------------------------|
A|--3h5-5-5-5-55---------------| x1
E|---------------222333444555--|

G|-----------------------------|
D|-----------------------------|
A|--3h5-5-5-55-55-5------------| x2
E|------------------222333444--|

    V
G|--5/7------------------------|
D|--5/7------------------------|
A|--3/5-5-55-5-55-55-5-5-5-55--| x5
E|-----------------------------|

    V
G|--5/7------------------------|
D|--5/7------------------------|
A|--3/5-5-55-5-55-/1717171717--| x1
E|-----------------------------|


Break:

        V       V       V       V   V
G|------5-------6-------7-------8/9-8/9--|
D|------3-------4-------5-------6/7-6/7--|
A|--5--3----5--3----5--3----5--3---------| x2
E|---45------45------45------45----------|

        V V      V V      V V      V   V   V
G|------5-5------6-6------7-7------8/9-8/9-9-----|
D|------3-3------4-4------5-5------6/7-6/7-7-----|
A|--5--3-----5--3-----5--3-----5--3--------------| x1
E|---45-------45-------45-------45---------------|


Outro:

G|------------------------------------------|
D|--6-----------------6------------------6--|
A|----6-6h7-6---6---6---6-6h7-6---6---6-----|
E|------------8---7-------------8---7----4--|


That's it. Don't forget to rate if it helped you!

            
            
Suggest correction
Creating personal tab
Creating personal tab
You can edit any tab online and save it as your Personal.

You can edit, replace or remove any tab part or add personal notes – all changes will be seen only by you.

Personal tabs can be accessed anytime from any device, even offline.
Learn more »
Give kudos to tab author, rate the tab!
1 2 3 4 5
comments
print report bad tab
guest
You may want to rate the tab now too:
select rating
Wanna post a correction for this tab? Suggest correction