Oops, an error
Loading. Please wait.

Golden Ticket tab

version 1
version 1

Whole song

Interactive

by Primus
456 views 1 this week
no commentswrite comment
1 2 3 4 5
1 last vote to show rating
add to favorites
×
Save as Personal and add changes to this tab that will be seen only by you. Learn more ›
×
You can save this tab as Personal to edit and correct it or add notes. All changes will be seen only by you. Learn more »
launch autoscroll
font size
0
reset
how to read this tab
guitar tuner
edit
Autoscroll
slow
fast
+/-
esc
set tempo
stop
Author
Difficulty
Primus - Golden Ticket

Classic Ler here.

No guitar until the Chorus riff

Chorus riff:

E-----------------------------------------|-------------------|
B-----------------17~--17~--16~-----------|-------------------|
G--15~--15~--15~-------------------15~----|-------------------|
D-----------------------------------------|-------------------|
A-----------------------------------------|-------------------|
E-----------------------------------------|-------------------|

End of chorus, start of verse:

---------------------------|-------------------|--/(13)~----------------|
---------------------------|-------------------|------------------------|
---------------------------|-------------------|------------------------|
12--11~--------------------|-------------------|------------------------|
---------------------------|-------------------|------------------------|
---------14~----13~--------|-------------------|------------------------|


---13----21~----20~----15~---|--11~----13~------------|
-----------------------------|------------------------|
-----------------------------|------------------------|
-----------------------------|------------------------|
-----------------------------|------------------------|
-----------------------------|------------------------|

-------15s~-13~--L--11~----------------|--------------------|
---------------------------13s~-11--L--|--------------------|
---------------------------------------|--10----------------|
---------------------------------------|--------------------|
---------------------------------------|--------------------|
---------------------------------------|--------------------|

------------11------------------|-----------------------|----------------------|
--9s-11--L--------11s--9--------|-----------------------|---x/-----------------|
--------------------------10----|--8--10---L------------|---x/-----------------|
--------------------------------|-----------------------|----------------------|
--------------------------------|-----------------------|----------------------|
--------------------------------|-----------------------|----------------------|

--------------------------------------------------------------------------|
--------------------------------------------------------------------------|
--(10)--(10)--(10)--(10)--(10)--(10)--(10)--(10)--(10)--(10)--(10)--(10)--|
--------------------------------------------------------------------------|
--------------------------------------------------------------------------|
--------------------------------------------------------------------------|

--------------------------------------------------------------|
--------------------------------------------------------------|
--(9)--(9)--(9)--(9)--(9)--(9)--(9)--(9)--(9)--(9)--(9)--(9)--|
--------------------------------------------------------------|
--------------------------------------------------------------|
--------------------------------------------------------------|

--------------------------------------------------------------|
--------------------------------------------------------------|
--(8)--(8)--(8)--(8)--(8)--(8)--(8)--(8)--(8)--(8)--(8)--(8)--|
--------------------------------------------------------------|
--------------------------------------------------------------|
--------------------------------------------------------------|

--------------------------------------------|--(13)~-----------------|
--------------------------------------------|------------------------|
--(9)--(9)--(9)--(9)--(9)--(9)--(9)---------|------------------------|
--------------------------------------------|------------------------|
--------------------------------------------|------------------------|
--------------------------------------------|------------------------|

--(12)~-----------------|-------------------|
------------------------|-------------------|
------------------------|-------------------|
------------------------|-------------------|
------------------------|-------------------|
------------------------|-------------------|

--(12)~--(12)~--(12)~--(12)~--(12)~--(12)~--(12)~---------|-------------------|
----------------------------------------------------------|-------------------|
----------------------------------------------------------|-------------------|
----------------------------------------------------------|-------------------|
----------------------------------------------------------|-------------------|
----------------------------------------------------------|-------------------|


Chorus riff again w/minor variations

-----------------------------------------|-------------------|
-----------------17~--17~---x~-----------|-------------------|
--15~--15~--15~-------------------15~----|-------------------|
-----------------------------------------|-------------------|
-----------------------------------------|-------------------|
-----------------------------------------|-------------------|
  
-----------------------------------------|----------------------|
-----------------17~--17~--16~-----------|---------------15~----|
--15~--15~--16~-------------------15~----|----------------------|
-----------------------------------------|----------------------|
-----------------------------------------|----------------------|
-----------------------------------------|----------------------|

---------------------------|-------------------|
--14~----------------------|-------------------|
---------11~----10~--------|-------------------|
---------------------------|-------------------|
---------------------------|-------------------|
---------------------------|-------------------|

Verse

--(11)~----(11)~----(11)~--------|---L--------14b~--------|
---------------------------------|------------------------|
---------------------------------|------------------------|
---------------------------------|------------------------|
---------------------------------|------------------------|
---------------------------------|------------------------|

--13~----13~------------|--13----16b~----19~----19~----|
------------------------|------------------------------|
------------------------|------------------------------|
------------------------|------------------------------|
------------------------|------------------------------|
------------------------|------------------------------|

--19~----19~----18~----16~----|--16~----19~----19~-----------|
------------------------------|-----------------------19~----|
------------------------------|------------------------------|
------------------------------|------------------------------|
------------------------------|------------------------------|
------------------------------|------------------------------|

------------------------|--------------------------------------------|
--16~----16~------------|--18~--18~--18~--18~--18~--18~--18~---------|
------------------------|--------------------------------------------|
------------------------|--------------------------------------------|
------------------------|--------------------------------------------|
------------------------|--------------------------------------------|

----------------------|--------------------|--------------------|
----------------------|--------------------|--------------------|
----------------------|--------------------|--------------------|
---------------10~----|--9~----------------|--8~----------------|
----------------------|--------------------|--------------------|
----------------------|--------------------|--------------------|

--------------------|---------------------|---------------------|
--------------------|--13~----------------|--12~----------------|
--------------------|---------------------|---------------------|
--9~----------------|---------------------|---------------------|
--------------------|---------------------|---------------------|
--------------------|---------------------|---------------------|

---------------------|-----------------------------|-------------------|
--11~----------------|--12--12--12--12-------------|-------------------|
---------------------|-----------------------------|-------------------|
---------------------|-----------------------------|-------------------|
---------------------|-----------------------------|-------------------|
---------------------|-----------------------------|-------------------|

Chorus riff again 

-------------------|-----------------------------------------|
-------------------|-----------------17~--17~--16~-----------|
-------------------|--15~--15~--15~-------------------15~----|
-------------------|-----------------------------------------|
-------------------|-----------------------------------------|
-------------------|-----------------------------------------|

----------------------|-------------------------|-------------------|
----------------------|-------------------------|-------------------|
----------------------|-------------------------|-------------------|
---------------12~----|--11~--------------------|-------------------|
----------------------|---------9~----8~--------|-------------------|
----------------------|-------------------------|-------------------|

----------------------|---------------------------|-------------------|
----------------------|---------------------------|-------------------|
----------------------|---------------------------|-------------------|
---------------12~----|--10~----------------------|-------------------|
----------------------|---------12~----13~--------|-------------------|
----------------------|---------------------------|-------------------|

Guitar solo/break bit

--13--13---L----13----13----|--13----20~----19~----18~----18----|
----------------------------|-----------------------------------|
----------------------------|-----------------------------------|
----------------------------|-----------------------------------|
----------------------------|-----------------------------------|
----------------------------|-----------------------------------|

--16-------------------|--20--20--20--21--21--20--18--20--18--|
-------------------18--|--------------------------------------|
-----------------------|--------------------------------------|
-----------------------|--------------------------------------|
-----------------------|--------------------------------------|
-----------------------|--------------------------------------|

--18----------------|--11---x--13---x--14---x--13---x--|
--------------------|----------------------------------|
--------------------|----------------------------------|
--------------------|----------------------------------|
--------------------|----------------------------------|
--------------------|----------------------------------|

--11--------x--------------|--------------x---x---x--------------|
--------11-----11----------|--------------------------x---x---x--|
---------------------10----|--11\--------------------------------|
---------------------------|-------------------------------------|
---------------------------|-------------------------------------|
---------------------------|-------------------------------------|

--------------------------|--------------------------|
--------------------------|--------------------------|
--10----10----10----10----|--12----12----12----12----|
--------------------------|--------------------------|
--------------------------|--------------------------|
--------------------------|--------------------------|

------------------------------|------------------------------|
------------------------------|------------------------------|
--13--13---L--13--13----13----|--12--12---L--12--12----12----|
------------------------------|------------------------------|
------------------------------|------------------------------|
------------------------------|------------------------------|

------------------------------|--------------------------|
------------------------------|--------------------------|
--10--10---L--10--10----10----|--12----12----12----12----|
------------------------------|--------------------------|
------------------------------|--------------------------|
------------------------------|--------------------------|

------------------------------|------------------------------|
------------------------------|------------------------------|
--13--13---L--13--13----13----|--12--12---L--12--12----12----|
------------------------------|------------------------------|
------------------------------|------------------------------|
------------------------------|------------------------------|

--------------------|--------------------------|-----------------------|
--------------------|--------------------------|-----------------------|
--10----------------|---L--------10--12---L----|--12s----10------------|
--------------------|--------------------------|-----------------------|
--------------------|--------------------------|-----------------------|
--------------------|--------------------------|-----------------------|

---------------------------|--------------------|-------------------------|
---------------------------|--------------------|-------------------------|
---L----10--8--8----8--10--|--10----------------|--8---------------8--10--|
---------------------------|--------------------|-------8--x--8-----------|
---------------------------|--------------------|-------------------------|
---------------------------|--------------------|-------------------------|

No guitar over bass/marimba solo.

Guitar back in before chorus 

----------------------|--------------------|--------------------|
----------------------|--------------------|--------------------|
---------------10~----|--9~----------------|--8~----------------|
----------------------|--------------------|--------------------|
----------------------|--------------------|--------------------|
----------------------|--------------------|--------------------|

--------------------|-------------------|
--------------------|-------------------|
--9~----------------|-------------------|
--------------------|-------------------|
--------------------|-------------------|
--------------------|-------------------|

Chorus:

-----------------------------------------|-------------------|
-----------------17~--17~--16~-----------|-------------------|
--15~--15~--15~-------------------15~----|-------------------|
-----------------------------------------|-------------------|
-----------------------------------------|-------------------|
-----------------------------------------|-------------------|

Out-Chorus

-------------------|--------------------------------------|
-------------------|--16--16--16--17~--17~--16~-----------|
-------------------|-------------------------------15~----|
-------------------|--------------------------------------|
-------------------|--------------------------------------|
-------------------|--------------------------------------|

--------------------------------------|--------------------------------------|
--16--16--16--17~--17~--16~-----------|--16--16--16--17~--17~--16~-----------|
-------------------------------15~----|-------------------------------15~----|
--------------------------------------|--------------------------------------|
--------------------------------------|--------------------------------------|
--------------------------------------|--------------------------------------|

--------------------------------------|--------------------------------------|
--16--16--16--17~--17~--16~-----------|--16--16--16--17~--17~--16~-----------|
-------------------------------15~----|-------------------------------15~----|
--------------------------------------|--------------------------------------|
--------------------------------------|--------------------------------------|
--------------------------------------|--------------------------------------|

--------------------------------------|
--16--16--16--17~--17~--16~-----------|
-------------------------------15~----|
--------------------------------------|
--------------------------------------|
--------------------------------------|

-----------------------------------------|-----------------------------|
--16~--16~--16~--17~--17~--16~----16~----|--15~------------------------|
-----------------------------------------|---------11~----10~-----L----|
-----------------------------------------|-----------------------------|
-----------------------------------------|-----------------------------|
-----------------------------------------|-----------------------------|

-------------------|-----------------------------------------|
-------------------|--11~--11~--11~--12~--12~--11~-----------|
-------------------|----------------------------------12~----|
-------------------|-----------------------------------------|
-------------------|-----------------------------------------|
-------------------|-----------------------------------------|

---------------------|-------------------|-------------------|
---------------------|-------------------|-------------------|
--10~----------------|-------------------|-------------------|
---------------------|-------------------|-------------------|
---------------------|-------------------|-------------------|
---------------------|-------------------|-------------------|

            
            
Suggest correction
Creating personal tab
Creating personal tab
You can edit any tab online and save it as your Personal.

You can edit, replace or remove any tab part or add personal notes – all changes will be seen only by you.

Personal tabs can be accessed anytime from any device, even offline.
Learn more »
Give kudos to tab author, rate the tab!
1 2 3 4 5
comments
print report bad tab
guest
You may want to rate the tab now too:
select rating
Wanna post a correction for this tab? Suggest correction