Oops, an error
Loading. Please wait.

Jerry Was A Race Car Driver tab

version 2
version 2

Whole song

Interactive

by Primus
1,357 views 1 this week
1 commentread comment
1 2 3 4 5
2 more votes to show rating
add to favorites
×
Save as Personal and add changes to this tab that will be seen only by you. Learn more ›
×
You can save this tab as Personal to edit and correct it or add notes. All changes will be seen only by you. Learn more »
launch autoscroll
font size
0
reset
how to read this tab
guitar tuner
edit
Autoscroll
slow
fast
+/-
esc
set tempo
stop
Author
Difficulty
|------------------------------15-15-14-12-14--14-12----------------------------|
|-14p13p12------------12h14h15-----------------------14-13-12-------------------|
|-------------12h14h15----------------------------------------14-13-12----------|
|----------------------------------------------------------------------14-13-12-|
|-------------------------------------------------------------------------------|
|-------------------------------------------------------------------------------|

                       |-----------64th Notes----------------------------------|
-------------------------------------------------------------------------------|
----------------12---------------------------------------13----13-12-----------|
----------------------9-8-7-8-9-10-9-8-9-10-11-10-9-10-11----------------------|
13-14/15-15---15---------------------------------------------------------------|
-------------------------------------------------------------------------------|
-------------------------------------------------------------------------------|
 |--64th-|  |-----------------------64th---------------------------------------|
9-9-8-8-7--10-9-8-9-10-11-10-9-10-11-12-11-10-11-12-13-12-11-------------------|
--------------------------------------------------------------10-10/9-9/10-10--|
-------------------------------------------------------------------------------|
-------------------------------------------------------------------------------|
-------------------------------------------------------------------------------|
-------------------------------------------------------------------------------|

-12-12-12-12-------------------13-13-13-13------------------14-14/15-15/16-16--|
-------------11-11/10-10/11-11------------12-12/10-10/11-11--------------------|
-------------------------------------------------------------------------------|
-------------------------------------------------------------------------------|
-------------------------------------------------------------------------------|
-------------------------------------------------------------------------------|

15-15~~~~~~~~~~\-----| This part is a series of slides along the high e string.
---14~~~~~~~~~~\-----| It's too hard to tab this out, but the way i figured it
---------------------| out is by playing around with slides on it while
---------------------| strumming the pattern. do this until you find something
---------------------| you like.
---------------------|

-9--10--11-----------------------------|
-----------9-10-11---------------------|
-------------------13-14-15b16-16-16b15|
---------------------------------------|
---------------------------------------|
---------------------------------------|

            
            
Suggest correction
Creating personal tab
Creating personal tab
You can edit any tab online and save it as your Personal.

You can edit, replace or remove any tab part or add personal notes – all changes will be seen only by you.

Personal tabs can be accessed anytime from any device, even offline.
Learn more »
Give kudos to tab author, rate the tab!
1 2 3 4 5
comments
print report bad tab
1 comment total.
0 reply
Dragforce92 60 Jul 16, 2007 04:50 PM

idk maybe im playin it wrong but it sounds awful.

guest
You may want to rate the tab now too:
select rating
Wanna post a correction for this tab? Suggest correction