Oops, an error
Loading. Please wait.

John The Fisherman Bass Tab

version 2
version 2

Whole song

Interactive

72,074 views 129 this week
30 commentsread comments
1 2 3 4 5
excellent!
x 53
add to favorites
launch autoscroll
font size
0
reset
guitar tuner
Autoscroll
slow
fast
+/-
esc
set tempo
stop
Help us to improve Ultimate-Guitar.com Take our survey!
×
Contributor
He uses whammy and heavy distortion in this part... its best to make an effect w/ a 
if you have one, if not the play wats written...

   (0:04)     (0:12)---------------------------------------------|
G---(0)---|---11h13p---------------------------------------------|
D---(0)---|-----------12-13^--(bend up then bend down slowly)----|
A---(0)---|------------------------------------------------------|
E---(0)---|------------------------------------------------------|


(0:21)

G|---4-5-6----------|---4-5-7-6---|
D|---4-5-6---(6x)---|---4-5-7-6---|
A|------------------|-------------|
E|------------------|-------------|


 (0:29)

        d u d           d u d               (0:45)
G|------4-5-6-----------4-5-6--------7-6-----|--7-6---|
D|------4-5-6-----------4-5-6--------7-6-----|--7-6---|
A|---------------0-2-3-----------0-2---------|--------|
E|-------------3---------------3-------------|--------|
              f f f f         f f f d u


 (0:48)  

       *on this part pluck the (0), or smack the fret board (literally SMAK it)*
G|---(0)-(0)-(0)-(0)--12/---|
D|--------------------------|
A|--------------------------|
E|--------------------------|


(0:54) Verse *keep the same 'down' 'up' 'finger' routine on all parts that look like 
through the song*

G|---4-5-6-----------4-5-6---------7-6----|
D|---4-5-6-----------4-5-6---------7-6----|
A|------------0-2-3-----------0-2---------|
E|----------3---------------3-------------|


(1:27) Chorus("when i grow up i want to be...")

G|---4-5-6------------4-5-6--------7-6-----|
D|---4-5-6------------4-5-6--------7-6-----|
A|------------0-2-3------------0-2---------|
E|----------3----------------3-------------|


(1:44)

G|---4-5-6-----------4-5-6---------7-6----|--4-5-6----------4-5-6-----------7-6---|
D|---4-5-6-----------4-5-6---------7-6----|--4-5-6----------4-5-6-----------7-6---|
A|-----------0-2-3------------0-2-------|----------0-2-3----------Drumfill--------|
E|---------3----------------3-----------|--------3--------------------------------|


(2:02)

 Solo  Play FAST (finger it)

G|---------------------7-6---|----------------------4-5-7-6------|
D|---------------4-----7-6---|---------------4------4-5-7-6------|
A|---------0h4h5---5---------|---------0h4h5---5-----------------|
E|---0h4h5-------------------|---0h4h5-----------0---------------|


(2:12)

G|--------------------------|
D|--------------------------|
A|--------------------------|
E|---(0)-(0)-(0)-(0)--12/---|


Back to Verse & Chorus


(3:25)

G|---4-5-6----------4-5-7-6/---|
D|---4-5-6---(6x)---4-5-7-6/---|
A|-----------------------------|
E|-----------------------------|


****************************************************************************

| d = down stroke with fingernail
| u = up stroke with pads of fingertips
| f = finger (just rest your thumb on the pickup and use ur fingers)

****************************************************************************
comments
print report bad tab
30 comments total. Showing first comments.
0 reply
harl91 1,072 wrote on January 19 2006, 08:12 am

good job o the tab, it looks right

0 reply
Mcassidy42 637 wrote on October 10 2006, 03:29 pm

Awesome tab, great song.

0 reply
benttwig33 470 wrote on January 16 2007, 12:08 am

Awsome song, good tab.

Good job

I want to post or [tab]
guest
You may want to rate the tab now too:
select rating
Please do not post tabs as comments. Select "correction" instead!