Oops, an error
Loading. Please wait.

John The Fisherman Bass

version 2
version 2

Whole song

Interactive

by Primus
3,165 views 48 this week
no commentswrite comment
1 2 3 4 5
x 3
add to favorites
launch autoscroll
font size
0
reset
guitar tuner
backing track
0:00
0:00
Autoscroll
slow
fast
+/-
esc
set tempo
stop
This is the entire song, enjoy

V = downstroke
^ = upstroke

   0:04      0:12
G---0~------11h13p----------------------------------------------|
D---0~--------------12-13^--bend up then bend down slowly-------|
A---0~----------------------------------------------------------|
E---0~------------------------------------------------------0/5-|

  v  ^  v  ^  v  ^  v  ^  v  ^  v  ^  v  ^  v
G-4--5--6-----4--5--6-----4--5--6-----4--5--6-|
D-4--5--6--x--4--5--6--x--4--5--6--x--4--5--6-|
A-2--3--4--x--2--3--4--x--2--3--4--x--2--3--4-|
E---------------------------------------------|

  ^  v  ^  v  ^  v  ^  v                  v  ^  v
G----4--5--6-----4--5--6------------------4--6--7--|
D-x--4--5--6--x--4--5--6------------------4--6--7--|
A-x--2--3--4--x--2--3--4------------------2--4--5--|
E--------------------------------------------------|

  ^  v  ^  v                  v  ^  v           v
G-6--4--5--6------------------4--5--6-----------7--|
D-6--4--5--6------------------4--5--6-----------7--|
A-4--2--3--4-----0--2--3------2--3--4-----2--3--5--|
E-------------4------------------------4-----------|

  ^  v  ^  v                  v  ^  v           v
G-6--4--5--6------------------4--5--6-----------7--|
D-6--4--5--6------------------4--5--6-----------7--|
A-4--2--3--4-----0--2--3------2--3--4-----2--3--5--|
E-------------4------------------------4-----------|

  ^  v  ^  v                  v  ^  v           v
G-6--4--5--6------------------4--5--6-----------7--|
D-6--4--5--6------------------4--5--6-----------7--|
A-4--2--3--4-----0--2--3------2--3--4-----2--3--5--|
E-------------4------------------------4-----------|

  ^  v  ^  v                  v  ^  v           v
G-6--4--5--6------------------4--5--6-----------7--|
D-6--4--5--6------------------4--5--6-----------7--|
A-4--2--3--4-----0--2--3------2--3--4-----2--3--5--|
E-------------4------------------------4-----------|

  ^                              v           v
G-6~-----------------------------0-----------0------|
D-6~---------------/15-----------0-----------0------|
A-4~-----------------------------0-----------0------|
E---------------------------------------------------|

       v          v   v
G------0----------0---9~----------------------------|
D------0----------0---9~----------------------------|
A------0----------0---9~---------------------16-----|
E---------------------------------------------------|

     v  ^  v                  v  ^  v           v
G----4--5--6------------------4--5--6-----------7--|
D----4--5--6------------------4--5--6-----------7--|
A----2--3--4-----0--2--3------2--3--4-----2--3--5--|
E-------------4------------------------4-----------|

  ^  v  ^  v                  v  ^  v           v
G-6--4--5--6------------------4--5--6-----------7--|
D-6--4--5--6------------------4--5--6-----------7--|
A-4--2--3--4-----0--2--3------2--3--4-----2--3--5--|
E-------------4------------------------4-----------|

  ^  v  ^  v                  v  ^  v           v
G-6--4--5--6------------------4--5--6-----------7--|
D-6--4--5--6------------------4--5--6-----------7--|
A-4--2--3--4-----0--2--3------2--3--4-----2--3--5--|
E-------------4------------------------4-----------|

  ^  v  ^  v                  v  ^  v           v
G-6--4--5--6------------------4--5--6-----------7--|
D-6--4--5--6------------------4--5--6-----------7--|
A-4--2--3--4-----0--2--3------2--3--4-----2--3--5--|
E-------------4------------------------4-----------|

  ^  v  ^  v                  v  ^  v           v
G-6--4--5--6------------------4--5--6-----------7--|
D-6--4--5--6------------------4--5--6-----------7--|
A-4--2--3--4-----0--2--3------2--3--4-----2--3--5--|
E-------------4------------------------4-----------|

  ^  v  ^  v                  v  ^  v           v
G-6--4--5--6------------------4--5--6-----------7--|
D-6--4--5--6------------------4--5--6-----------7--|
A-4--2--3--4-----0--2--3------2--3--4-----2--3--5--|
E-------------4------------------------4-----------|

  ^  v  ^  v                  v  ^  v           v
G-6--4--5--6------------------4--5--6-----------7--|
D-6--4--5--6------------------4--5--6-----------7--|
A-4--2--3--4-----0--2--3------2--3--4-----2--3--5--|
E-------------4------------------------4-----------|

  ^  v  ^  v                  v  ^  v           v
G-6--4--5--6------------------4--5--6-----------7--|
D-6--4--5--6------------------4--5--6-----------7--|
A-4--2--3--4-----0--2--3------2--3--4-----2--3--5--|
E-------------4------------------------4-----------|

  ^  v  ^  v                  v  ^  v           v
G-6--4--5--6------------------4--5--6-----------7--|
D-6--4--5--6------------------4--5--6-----------7--|
A-4--2--3--4-----0--2--3------2--3--4-----2--3--5--|
E-------------4------------------------4-----------|

  ^  v  ^  v                  v  ^  v           v
G-6--4--5--6------------------4--5--6-----------7--|
D-6--4--5--6------------------4--5--6-----------7--|
A-4--2--3--4-----0--2--3------2--3--4-----2--3--5--|
E-------------4------------------------4-----------|

  ^  v  ^  v                  v  ^  v           v
G-6--4--5--6------------------4--5--6-----------7--|
D-6--4--5--6------------------4--5--6-----------7--|
A-4--2--3--4-----0--2--3------2--3--4-----2--3--5--|
E-------------4------------------------4-----------|

  ^  v  ^  v                  v  ^  v           v
G-6--4--5--6------------------4--5--6-----------7--|
D-6--4--5--6------------------4--5--6-----------7--|
A-4--2--3--4-----0--2--3------2--3--4-----2--3--5--|
E-------------4------------------------4-----------|

  ^  v  ^  v                  v  ^  v           v
G-6--4--5--6------------------4--5--6-----------7--|
D-6--4--5--6------------------4--5--6-----------7--|
A-4--2--3--4-----0--2--3------2--3--4-----2--3--5--|
E-------------4------------------------4-----------|

  ^  v  ^  v                  v  ^  v           v
G----4--5--6------------------4--5--6--x-x-x--x--7-|
D----4--5--6------------------4--5--6--x-x-x--x--7-|
A----2--3--4-----0--2--3------2--3--4--x-x-x--x--5-|
E-------------4------------------------------------|

  ^  v  ^  v                  v  ^  v           v
G-6--4--5--6------------------4--5--6-----------7--|
D-6--4--5--6------------------4--5--6-----------7--|
A-4--2--3--4-----0--2--3------2--3--4-----2--3--5--|
E-------------4------------------------4-----------|

  ^  v  ^  v                  v  ^  v           v
G-6--4--5--6------------------4--5--6-----------7--|
D-6--4--5--6------------------4--5--6-----------7--|
A-4--2--3--4-----0--2--3------2--3--4-----2--3--5--|
E-------------4------------------------4-----------|

  v                                              v
G-6~---------------------------------------------7--|
D-6~---------------------------------------------7--|
A-4~-------------------------5h7-5h7-5/10--------5--|
E---------------------------------------------------|

  ^
G-6~------------------------------------------------|
D-6~--------------------------------4---------------|
A-4~----------------------------0h4----5------------|
E---------------------------0h4--------------3------|

     v  ^  v
G----4--5--7--|
D----4--5--7--|
A----2--3--5--|
E-------------|

  ^                              v           v
G-6~-----------------------------0-----------0------|
D-6~-----------------------------0-----------0------|
A-4~---------------/16-----------0-----------0------|
E---------------------------------------------------|

       v          v   v
G------0----------0---9----------------------------|
D------0----------0---9----------------------------|
A------0----------0---9---------------------/16----|
E--------------------------------------------------|

  ^  v  ^  v                  v  ^  v           v
G----4--5--6------------------4--5--6-----------7--|
D----4--5--6------------------4--5--6-----------7--|
A----2--3--4-----0--2--3------2--3--4-----2--3--5--|
E-------------4------------------------4-----------|

  ^  v  ^  v                  v  ^  v           v
G-6--4--5--6------------------4--5--6-----------7--|
D-6--4--5--6------------------4--5--6-----------7--|
A-4--2--3--4-----0--2--3------2--3--4-----2--3--5--|
E-------------4------------------------4-----------|

  ^  v  ^  v                  v  ^  v           v
G-6--4--5--6------------------4--5--6-----------7--|
D-6--4--5--6------------------4--5--6-----------7--|
A-4--2--3--4-----0--2--3------2--3--4-----2--3--5--|
E-------------4------------------------4-----------|

  ^  v  ^  v                  v  ^  v           v
G-6--4--5--6------------------4--5--6-----------7--|
D-6--4--5--6------------------4--5--6-----------7--|
A-4--2--3--4-----0--2--3------2--3--4-----2--3--5--|
E-------------4------------------------4-----------|

  ^  v  ^  v                  v  ^  v           v
G-6--4--5--6------------------4--5--6-----------7--|
D-6--4--5--6------------------4--5--6-----------7--|
A-4--2--3--4-----0--2--3------2--3--4-----2--3--5--|
E-------------4------------------------4-----------|

  ^  v  ^  v                  v  ^  v           v
G-6--4--5--6------------------4--5--6-----------7--|
D-6--4--5--6------------------4--5--6-----------7--|
A-4--2--3--4-----0--2--3------2--3--4-----2--3--5--|
E-------------4------------------------4-----------|

  ^  v  ^  v                  v  ^  v           v
G-6--4--5--6------------------4--5--6-----------7--|
D-6--4--5--6------------------4--5--6-----------7--|
A-4--2--3--4-----0--2--3------2--3--4-----2--3--5--|
E-------------4------------------------4-----------|

  ^  v  ^  v                  v  ^  v           v
G-6--4--5--6------------------4--5--6-----------7--|
D-6--4--5--6------------------4--5--6-----------7--|
A-4--2--3--4-----0--2--3------2--3--4-----2--3--5--|
E-------------4------------------------4-----------|

  ^  v  ^  v                  v  ^  v           v
G-6--4--5--6------------------4--5--6-----------7--|
D-6--4--5--6------------------4--5--6-----------7--|
A-4--2--3--4-----0--2--3------2--3--4-----2--3--5--|
E-------------4------------------------4-----------|

  ^  v  ^  v                  v  ^  v           v
G-6--4--5--6------------------4--5--6-----------7--|
D-6--4--5--6------------------4--5--6-----------7--|
A-4--2--3--4-----0--2--3------2--3--4-----2--3--5--|
E-------------4------------------------4-----------|

  ^  v  ^  v                  v  ^  v           v
G-6--4--5--6------------------4--5--6-----------7--|
D-6--4--5--6------------------4--5--6-----------7--|
A-4--2--3--4-----0--2--3------2--3--4-----2--3--5--|
E-------------4------------------------4-----------|

  ^  v  ^  v                  v  ^  v           v
G-6--4--5--6------------------4--5--6-----------7--|
D-6--4--5--6------------------4--5--6-----------7--|
A-4--2--3--4-----0--2--3------2--3--4-----2--3--5--|
E-------------4------------------------4-----------|

  ^  v  ^  v  ^  v  ^  v   ^  v  ^  v  ^  v  ^  v
G-6--4--5--6-----4--5--6------4--5--6-----4--5--6--|
D-6--4--5--6--x--4--5--6---x--4--5--6--x--4--5--6--|
A-4--2--3--4--x--2--3--4---x--2--3--4--x--2--3--4--|
E--------------------------------------------------|

  ^  v  ^  v  ^  v  ^  v                  v  ^  v  ^
G----4--5--6-----4--5--6------------------4--5--7--6-|
D-x--4--5--6--x--4--5--6------------------4--5--7--6-|
A-x--2--3--4--x--2--3--4------------------2--3--5--4-|
E----------------------------------------------------|
Suggest correction
Give kudos to tab author, rate the tab!
1 2 3 4 5
comments
print report bad tab
guest
You may want to rate the tab now too:
select rating
Wanna post a correction for this tab? Suggest correction